Your One-Stop Source For
Music Lyrics
Bass and Guitar Tabs
and More...
Music Lyrics Bass and Guitar Tabs

 

The Tabs Are Below

Learn To Read Tab
Chords Handbook
Corrections & Additions
Get Official Tab
All American Rejects tabs @ 911Tabs

This is a great song. #5 on the cd.

It is my personal favorite. So anyway

enjoy!!!!!!!!!!!!!!!!!!!!!!!!!!!!!!!

 

One More Sad song

The ALl American Rejects

Drop-D tuning

 

 

Key:

* - repeat x 14

< - repeat x 7

p - palm muted

 

 

Intro:

 

e---------------------------------------------------------------------------

b---------------------------------------------------------------------------

g-------------6*------7<-----9<---------------------------------------------

d---7*--------6*------7<-----9<----7*--------------repeat x 1---------------

a---7*--------4*------5<-----7<----7*---------------------------------------

e---7*-----------------------------7*---------------------------------------

 

Verse:

 

Same riff as above But heavily palm muted.

 

One boy one girl

two hearts their world

time goes by, secrets rise

 

Before the second part of the verse there is a Small interlude

In this you go up to :

e-----------------

b-----------------

d-----------------

g---10------------

a---10------------

e---10------------

And then slide down to your starting note, playing all notes in between.

If this makes no sense to you...forget it because it sounds ok anyway.

 

Then with the same riff, but not palm muted sing:

 

One more sad song

Tears shed she's gone

She'd take it back if she only could.

 

Prechorus:

 

e-----------------------------------------------------------------------------

b-----------------------------------------------------------------------------

d---------------------------------------7<-----------------------------9<-----

g----7-7----6-6---4p<-------------------7<----------------4p<----------9<-----

a----7-7----6-6---4p<-------------------5<----------------4p<----------7<-----

e----7-7----6-6---4p<-------------------------------------4p<-----------------

And all the perfect words they seem so wrong...she's gone

 

With above riff sing:

 

You wish that you could learn to see,

the door is door is closed

and you wish you could be....

 

Chorus

 

e----------------------------------------------------------------------------

b----------------------------------------------------------------------------

d----------------------------------6P<---------------7p<---------------------

g---7p*----------------------------6p<---------------7p<---------------------

a---7p*----------------------------4p<---------------5p<---------------------

e---7p*----------------------------------------------------------------------

Alone with you, alone with me...what can i do...i cannot breath

 

With same riff:

 

My heart is torn for all to see

alone with you

Alone with......Me

 

Play intro x 1

 

Verse 2:

Best friend worst thing

She's been cheating

Friend decieves...she leaves

Last date she cries

wispers goodbye

Then once more she walks out that door

 

Chorus x 1

 

Bridge: Using Intro riff

 

Please sta-a-ay

Don't go awa-a-ay

The hardest thing is letting go of you

 

repeat.....then chorus un palm muted, and fade out.

 

enjoy it and support this great band

 

Any death threats, love letters, or comments/corrections

send to atticusdude@hotmail.com

 

Return to my All-American Rejects tabs page

The Tablature is Copyright its respective owners.

Sign Up For My Newsletter
Subscribe | Unsubscribe

Site Map | Disclaimer | Privacy Policy | Media Kit | Submissions/Corrections

Website © 2000-2014 mattsmusicpage.com. All rights reserved.

Legal & DMCA: Matt's Music Page has been providing lyrics and tabs in a legal way, paying royalties each year to a few organizations. Then, all lyrics and tabs were removed from the site. Now, there's a new owner to the site, which purchased it August 26, 2014, and he is in negotiation to obtain licensing from BMI at the moment. If you have a specific DMCA request -- please do not hesitate to contact me via the contact button on top. I will do my very best to keep this site fully legal.

Get our toolbar!