Your One-Stop Source For
Music Lyrics
Bass and Guitar Tabs
and More...
Music Lyrics Bass and Guitar Tabs

 

The All-American Rejects Guitar Tabs Are Below

Learn To Read Tab
Chords Handbook
Corrections & Additions
Get Official Tab
All American Rejects tabs @ 911Tabs

DANCE INSIDE - All American Rejects

-----------------------------------------------------------------------------

 

Artist: All American Rejects

Album: Move Along

Song: Dance Inside

Tabbed by: DeJo Wrigley

Email: djwrigle@iupui.edu

 

Tuning: standard (eBGDAE)

 

this should be pretty d-AAR-n accurate! (notice: use diff. C#m7 form in the BRIDGE) ENJOY!

 

| + harmonic

 

C#m7 Asus2 Esus2 Bsus4 Bsus4/3 E

e|---0-------0-------0-------0-------0------0-------------------------------|

B|---0-------0-------0-------0-------0------0-------------------------------|

G|---4-------2-------4-------9-------8------1-------------------------------|

D|---2-------2-------4-------9-------9------2-------------------------------|

A|---4-------0-------2-------9-------9------2-------------------------------|

E|---x-------x-------x-------x-------x------0-------------------------------|

 

CHORDS FOR BRIDGE:

*C#m7 C#m C#7 F#m G#m A B

e|---4------4-----4----2-------4------5-----7-------------------------------|

B|---5------5-----6----2-------4------5-----7-------------------------------|

G|---4------6-----4----2-------4------6-----8-------------------------------|

D|---6------6-----6----4-4-4---6-6-6--7-7---9-------------------------------|

A|---4------4-----4----4-------6------7-----9-------------------------------|

E|---x------x-----x----2-------4------5-----7-------------------------------|

 

Intro:

 

C#m7 Asus2 Esus2 Bsus4 Bsus4/3

C#m7 Asus2 Esus2

 

e|--+12-----+7-16-----------------------------------------------------------|

B|--+12-+12------14---------------------------------------------------------|

G|--------------------------------------------------------------------------|

D|--------------------------------------------------------------------------|

A|--------------------------------------------------------------------------|

E|--------------------------------------------------------------------------|

 

VERSE1-

C#m7 Asus2 Bsus4 Bsus4/3

you don't have to move, you don't have to speak/ lips for biting.

C#m7 Asus2 Bsus4 Bsus4/3

you're staring me down, a glance makes me weak/ eyes for striking.

 

C#m7 Asus2 Esus2 Bsus4 Bsus4/3

 

C#m7 Asus2 Bsus4 Bsus4/3

now im twisted up when i'm twisted with you/ brush so lightly.

C#m7 Asus2 Bsus4 Bsus4/3

and time trickles down, and i'm breathing for two/ squeeze so tightly.

 

PRECHORUS-

C#m7 Asus2 Esus2

i'll be fine, you'll be fine.

Esus2

this moment seems so long

C#m7 Asus2 Esus2

don't waste now, precious time

Bsus4 Bsus4/3 C#m7

we'll dance inside the song

 

 

CHORUS-

C#m7 Asus2 Esus2

what makes the one to shake you down?

Bsus4 Bsus4/3 C#m7

each touch belongs to each new sound

Asus2 Esus2

say now you want to shake me too

Bsus4 Bsus4/3 C#m7

move down to me, slip into you

 

VERSE 2-

C#m7 Asus2 Bsus4 Bsus4/3 C#m7

she sinks in my mind as she sheds through her skin/touch like taste like fire

Asus2 Bsus4 Bsus4/3

hands to know what eyes no longer defend/ hands to fuel desire

 

[PRECHORUS] & [CHORUS]

 

C#m7 Asus2 Esus2 Bsus4 Bsus4/3

C#m7 Asus2 Esus2 Asus2

 

Bsus4 Bsus4/3 C#m7 Asus2

Ooo ah, Ooo ah, Ooo ah, Ooo ah

 

Bsus4 Bsus4/3 C#m7 Asus2 Esus2

Ooo ah, Ooo ah, Ooo ah, Ooo ah

 

BRIDGE-

*C#m7 C#m

and i'll be fine, you'll be fine

C#7 *C#m7

is this fine? i'm not fine

F#m G#m A B

give me pieces, give me things to stay awake (stay awake)

 

[CHORUSx2]

 

ending:

C#m7 Asus2 Esus2

move down to me slip into you

 

Bsus4 Bsus4/3 C#m7 Asus2 Esus2 E

 

 

Return to my All-American Rejects Guitar Tabs page

The Tablature is Copyright its respective owners.

Sign Up For My Newsletter
Subscribe | Unsubscribe

Site Map | Disclaimer | Privacy Policy | Media Kit | Submissions/Corrections

Website © 2000-2014 mattsmusicpage.com. All rights reserved.

Legal & DMCA: Matt's Music Page has been providing lyrics and tabs in a legal way, paying royalties each year to a few organizations. Then, all lyrics and tabs were removed from the site. Now, there's a new owner to the site, which purchased it August 26, 2014, and he is in negotiation to obtain licensing from BMI at the moment. If you have a specific DMCA request -- please do not hesitate to contact me via the contact button on top. I will do my very best to keep this site fully legal.

Get our toolbar!