Your One-Stop Source For
Music Lyrics
Bass and Guitar Tabs
and More...
Music Lyrics Bass and Guitar Tabs

 

The Tabs Are Below

Learn To Read Tab
Chords Handbook
Corrections & Additions
Get Official Tab
Alicia Keys tabs @ 911Tabs

Alicia Keys

 

If I ain't got you

 

 

Questions, comments: clon1982@hotmail.com

 

 

The vertical lines represent the beat, with an accent on the 4th beat

(the time signature is 6/4)

 

 

 

 

 

Intro

| | | X | | | | | X | |

G|-------------------------2-----4---|-5---------------------------------|

D|-------------------5---------------|-----------------------------------|

A|-----------------------------------|-----------------------------------|

E|-----------------------------------|-----------------------------------|

 

 

| | | X | | | | | X | |

G|-4-----------------------------3---|-2---------------------------------|

D|-----------------------------------|-----------------------------------|

A|-----------------------------------|-----------------------------------|

E|-----------------------------------|-----------------------------------|

 

end intro | Verse 1

| | | X | | | | | X | |

G|-----------------------------------|-----------------------------------|

D|-5---------------------------------|-----------------------------------|

A|----------------------------------3|-2---------------------------------|

E|-----------------------------------|-----------------------------------|

 

 

| | | X | | | | | X | |

G|-----------------------------------|-----------------------------------|

D|-----------------------------------|-----------------------------------|

A|-----------------------------------|-0---------------------------------|

E|-0---------------------------------|-----------------------------------|

 

 

| | | X | | | | | X | |

G|-----------------------------------|-----------------------------------|

D|-0---------------------------------|-----------------------------------|

A|-----------------------------------|-----------------------------------|

E|-----------------------------------|-3---------------------------------|

 

 

| | | X | | | | | X | |

G|-----------------------------------|-----------------------------------|

D|-----------------------------------|-----------------------------------|

A|-----------------------------------|-----------------------------------|

E|-4---------------------------------|-5-----------------------------5---|

 

 

| | | X | | | | | X | |

G|-----------------------------------|-----------------------------------|

D|-----------------------------------|-----------------------------------|

A|-5---------------------------------|-----------------------------------|

E|-----------------------------------|-3-----------------5---------------|

 

 

| | | X | | | | | X | |

G|-----------------------------------|-----------------------------------|

D|-----------------------------------|-----------------------------------|

A|-2---------------------------------|-----------------------------------|

E|-------------------5---------------|-3-----------------5---------------|

 

 

| | | X | | | | | X | |

G|-----------------------------------|-----------------------------------|

D|-----------------------------------|-----------------------------------|

A|-2-----------------3-----2---------|-----------------------------------|

E|-------------------------------5---|-3-----------------5---------------|

 

 

| | | X | | | | | X | |

G|-----------------------------------|-----------------------------------|

D|-----------------------------------|-----------------------------------|

A|-2---------------------------------|-----------------------------------|

E|-------------------5--------------5|-3-----------------5---------------|

 

end verse | Chorus

| | | X | | | | | X | |

G|-------------------4-----X-----X---|-----------------------------------|

D|-----------------------------------|-----------------------------------|

A|-2---------------------------------|-----------------------------------|

E|-----------------------------------|-3--------------------------------3|

 

 

| | | X | | | | | X | |

G|-----------------------------------|-----------------------------------|

D|-----------------------------------|-----------------------------------|

A|-2--2--------------------------2---|-----------------------------------|

E|-----------------------------------|-5-----------------------------5---|

 

 

| | | X | | | | | X | |

G|-----------------------------------|-----------------------------------|

D|-----------------------------------|-----------------------------------|

A|----------------------------------2|-3---------------------------------|

E|-3-----------------3-----5---------|-----------------------------------|

 

 

| | | X | | | | | X | |

G|-----------------------------------|-----------------------------------|

D|-----------------------------------|-----------------------------------|

A|-----------------------------------2-3---------------------------------3

E|-3-----------------3-----5---------|---------------------------------3-|

 

 

| | | X | | | | | X | |

G|-----------------------------------|-----------------------------------|

D|-----------------------------------|-----------------------------------|

A|-2-----------------------------1---|-0---------------------------------|

E|-----------------------------------|-----------------------------------|

 

end chorus | Verse 2

| | | X | | | | | X | |

G|-----------------------------------|-----------------------------------|

D|-----------------------------------|-------------------------0-----1---|

A|-----------------------------------|-------------------2---------------|

E|-3---------------------------------|-3---------------------------------|

 

 

| | | X | | | | | X | |

G|-----------------------------------|-----------------------------------|

D|-2-------------------------------2-|-------------------------------2---|

A|-------------------------2---------2-0---------------------------------|

E|-----------------------------------|-----------------------------------|

 

 

| | | X | | | | | X | |

G|-----------------------------------|-----------------------------------|

D|-0---------------------------------|-----------------------------------|

A|-----------------------------------|-----------------------------------|

E|-----------------------------------|-3-----------------------------3---|

 

 

| | | X | | | | | X | |

G|-----------------------------------|-----------------------------------|

D|-----------------------------------|-----------------------------------|

A|-----------------------------------|-----------------------------------|

E|-4-----------------------------4---|-5-----------------------------5---|

 

 

| | | X | | | | | X | |

G|-----------------------------------|-----------------------------------|

D|-----------------------------------|-----------------------------------|

A|-5---------------------------------|-----------------------------------|

E|-----------------------------------|-3-----------------5---------------|

 

 

| | | X | | | | | X | |

G|-----------------------------------|-----------------------------------|

D|-----------------------------------|-----------------------------------|

A|-2---------------------------------|-----------------------------------|

E|-------------------5---------------|-3-----------------5---------------|

 

 

| | | X | | | | | X | |

G|-----------------------------------|-----------------------------------|

D|-----------------------------------|-----------------------------------|

A|-2-----------------3-----2---------|-----------------------------------|

E|-------------------------------5---|-3-----------------5---------------|

 

 

| | | X | | | | | X | |

G|-----------------------------------|-----------------------------------|

D|-----------------------------------|-----------------------------------|

A|-2---------------------------------|-----------------------------------|

E|-------------------5---------------|-3-----------------5---------------|

 

end verse | Chorus (X2)

| | | X | | | | | X | |

G|-----------------------------------|-----------------------------------|

D|-----------------------------------|-----------------------------------|

A|-2---------------------------------|------IDEM CHORUS 1----------------|

E|-----------------------------------|-----------------------------------|

 

Return to my Alicia Keys bass tabs page

The Tablature is Copyright its respective owners.

Sign Up For My Newsletter
Subscribe | Unsubscribe

Site Map | Disclaimer | Privacy Policy | Media Kit | Submissions/Corrections

Website © 2000-2014 mattsmusicpage.com. All rights reserved.

Legal & DMCA: Matt's Music Page has been providing lyrics and tabs in a legal way, paying royalties each year to a few organizations. Then, all lyrics and tabs were removed from the site. Now, there's a new owner to the site, which purchased it August 26, 2014, and he is in negotiation to obtain licensing from BMI at the moment. If you have a specific DMCA request -- please do not hesitate to contact me via the contact button on top. I will do my very best to keep this site fully legal.

Get our toolbar!

 

Hard Rock Pin Las Vegas 4th of july red white and blue guitar
$5.0
Hard Rock Pin Las Vegas 4th of july red white and blue guitar picture


Hard Rock Pin Hollywood Fl Bell Girl with dice luggage and guitar
$5.0
Hard Rock Pin Hollywood Fl Bell Girl with dice luggage and guitar picture


Hard Rock Pin Las Vegas King of Clubs Guitar rare only 3 lines of info on back
$5.0
Hard Rock Pin Las Vegas King of Clubs Guitar rare only 3 lines of info on back picture


Hard Rock Pin Edmonton guitar pin
$5.0
Hard Rock Pin Edmonton guitar pin picture


Lladro Guitar Boy #4614 - Beautiful Piece of Lladro
$109.0
Lladro Guitar Boy #4614 - Beautiful Piece of Lladro picture