Your One-Stop Source For
Music Lyrics
Bass and Guitar Tabs
and More...
Music Lyrics Bass and Guitar Tabs

 

The Tabs Are Below

Learn To Read Tab
Chords Handbook
Corrections & Additions
Get Official Tab
More Aerosmith tabs @ 911Tabs

 

Walk this Way

 

[-------------------------------------------------------------------------]

[-------------------------------------------------------------------------]

[-------------------------------------------------------------------------]

[----:----:-----2-----:-----:-------------:---:----2---:---:----2-----2---]

[--0---1----2------0-----1----2---------0---1---2-----0--1---2------------]

[--------------------------------0---------------------------------3------]

 

 

[-------------------------------------------------------------------------]

[-------------------------------------------------------------------------]

[-------------------------------------------------2-----------------------]

[---:--:---2----:--:----------:--:--2----:--:--2--2-----------------------]

[-0--1--2-----0--1--2-------0--1--2----0--1--2----0-----------------------]

[---------------------0---------------------------------------------------]

 

Of course the timing of this is meaningless...but you get the idea!

Dan

 

 

~From: chris@labtam.labtam.oz.au (Chris Taylor)

~Subject: Aerosmith - walk this way

 

Start of Aerosmiths' "Walk this way"...

(Or something like it anyway...)

 

|----------------------|-----------------------------|

|----------------------|-----------------------------|

|----------------------|-----------------------------|

|--------2--------2----|---------2--------2---2------|

|--0-1-2----0-1-2------|---0-1-2----0-1-2------------|

|-------------------0--|--------------------3--------|

^ ~

*

\---/ <==== RUN D.M.C variation

 

 

|----------------------|-----------------------------|

|----------------------|-----------------------------|

|----------------------|----------------------2------|

|--------2--------2----|---------2--------2---2------|

|--0-1-2----0-1-2------|---0-1-2----0-1-2-----0------|

|-------------------0--|-----------------------------|

 

^ = slight bend

~ = vibrato

* = semi-harmonic sounds cool here if you can pinch it out.

 

 

WHAT I WOULD LIKE is for some kind person to give me is the basis of the

riff that follows during the verses.

 

Stuffed if I can figure it out though it sounds like some pretty straight

forward diddling.

 

 

 

Aerosmith Walk This Way

 

 

|----------------------|-----------------------------|

|----------------------|-----------------------------|

|----------------------|-----------------------------| This riff is played

only

|--------2--------2----|---------2--------2-----2----| for the intro.

|--0-1-2----0-1-2------|---0-1-2----0-1-2------------|

|-------------------0--|--------------------3-0------|

p

|----------------------|-----------------------------|

|----------------------|-----------------------------|

|----------------------|---------------------2-------|

|--------2--------2----|---------2--------2--2-------|

|--0-1-2----0-1-2------|---0-1-2----0-1-2----0-------|

|-------------------0--|-----------------------------|

 

 

|----------------------|-----------------------------|

|----------------------|-----------------------------|

|----------------------|-----------------------------| This riff is played in

all

|--------2--------2----|---------2--------2--------2-| other verses.

|--0-1-2----0-1-2------|---0-1-2----0-1-2------------|

|-------------------0--|--------------------0--3-0---|

p

|----------------------|-----------------------------|

|----------------------|-----------------------------|

|----------------------|---------------------2-------|

|--------2--------2----|---------2--------2--2-------|

|--0-1-2----0-1-2------|---0-1-2----0-1-2----0-------|

|-------------------0--|-----------------------------|

 

|------------------------|

|------------------------| This is a very basic outline (from memory)

|-------------5-5--------| of the guitar part played during each verse.

|-5-55-55-7--5-5-8-5-7-5-| Try different combinations of picking and

|-3-33-33-3--------------| hammer/pulls until you find the groove.

|------------------------|

 

 

Walk This Way ..... Second Bit

 

This is the riff that gets played under the verses.

 

----------------------------------------------------------------------

----------------------------------------------------------------------

-(5)------0-2p0---5p0-0-3-2p0-----------------------------------------

-(5)------------------------------------------------------------------

--3-3-3-3-------3-----------------------------------------------------

----------------------------------------------------------------------

 

 

Someone want to post the Final Bit? (chords in the chorus)

Off the top of my head I reckon it's this, but I Could Be Wrong ....

 

--3-----3---------------

--3-----3---------------

--1-----2---------------

--2-----2---------------

--2-----0---------------

--0---------------------

 

 

Click here to return to my Aerosmith tabs page

The Tablature is Copyright its respective owners.

Sign Up For My Newsletter
Subscribe | Unsubscribe

Site Map | Disclaimer | Privacy Policy | Media Kit | Submissions/Corrections

Website © 2000-2014 mattsmusicpage.com. All rights reserved.

Get our toolbar!