Your One-Stop Source For
Music Lyrics
Bass and Guitar Tabs
and More...
Music Lyrics Bass and Guitar Tabs

 

The Tabs Are Below

Learn To Read Tab
Chords Handbook
Corrections & Additions
Get Official Tab
More Aerosmith tabs @ 911Tabs

 

Sweet Emotion

 

This is pretty much it right here. I'm not quite sure if its the exact right

amount of repeats but this is exactly it.

 

E :----------------------------- 7|| ------------------- 7|

B :----------------------------- ||| ------------------- ||

G :-----------------------------*|||*7------------------*||

D :------5-----7-7--------------*|||*7-7-7----------7---*||

A :0-0-0---0-0-----0-0-5-p0-4-h5 ||| 5-7-7---3-p0---7--- ||

E :----------------------------- ||| --5-5--------3-5--- ||

 

E :--------------------------- 2|------------------------|

B :--------------------------- ||------------------------|

G :---------------------------*||------------------------|

D :---------------------------*||------------------------|

A :5-p3-p0-------------------- ||5-p3-p0-----------------|

E :--------0-2-2--0-3-3-0-4-5- ||--------0-2-2--0-3--4-5-|

 

E :| ------------------- 7|------------------------|

B :| ------------------- ||------------------------|

G :|*7------------------*||------------------------|

D :|*7-7-7----------7---*||------------------------|

A :| 5-7-7---3-p0---7--- ||5-p3-p0-----------------|

E :| --5-5--------3-5--- ||--------0-2-2--0-3--4-5-|

 

E :| ----------------------------- 7|| ------------------- 3|

B :| ----------------------------- ||| ------------------- ||

G :|*-----------------------------*|||*7------------------*||

D :|*------5-----7-7--------------*|||*7-7-7----------7---*||

A :| 0-0-0---0-0-----0-0-5-p0-4-h5 ||| 5-7-7---3-p0---7--- ||

E :| ----------------------------- ||| --5-5--------3-5--- ||

 

E :------------------------|| ------------------- 3|

B :------------------------|| ------------------- ||

G :------------------------||*7------------------*||

D :------------------------||*7-7-7----------7---*||

A :5-p3-p0-----------------|| 5-7-7---3-p0---7--- ||

E :--------0-2-2--0-3--4-5-|| --5-5--------3-5--- ||

 

E :| ------------------------ 7|-----------------------------|

B :| ------------------------ ||-----------------------------|

G :|*------------------------*||-----------------------------|

D :|*------------------------*||------5-----7-7--------------|

A :| 5-p3-p0----------------- ||0-0-0---0-0-----0-0-5-p0-4-h5|

E :| --------0-2-2--0-3--4-5- ||-----------------------------|

 

 

Click here to return to my Aerosmith tabs page

The Tablature is Copyright its respective owners.

Sign Up For My Newsletter
Subscribe | Unsubscribe

Site Map | Disclaimer | Privacy Policy | Media Kit | Submissions/Corrections

Website © 2000-2014 mattsmusicpage.com. All rights reserved.

Legal & DMCA: Matt's Music Page has been providing lyrics and tabs in a legal way, paying royalties each year to a few organizations. Then, all lyrics and tabs were removed from the site. Now, there's a new owner to the site, which purchased it August 26, 2014, and he is in negotiation to obtain licensing from BMI at the moment. If you have a specific DMCA request -- please do not hesitate to contact me via the contact button on top. I will do my very best to keep this site fully legal.

Get our toolbar!