Your One-Stop Source For
Music Lyrics
Bass and Guitar Tabs
and More...
Music Lyrics Bass and Guitar Tabs

 

The Tabs Are Below

Learn To Read Tab
Chords Handbook
Corrections & Additions
Get Official Tab
More Aerosmith tabs @ 911Tabs

Aerosmith - Spiderman

Spierman Soundtrack 2002

 

 

D drop tuning (DADGBe)

 

Intro

 

e |------------------------------------------|

B |------------------------------------------|

G |------------------------------------------|

D |------------------------------------------|

A |------------------------------------------|

D |-1-3-1-3-1-3-1-3^4--00-00--1-3-1-3-1-3^4--|

^^ ^^

pm pm

 

Interlude/post-chorus

e |---------------------------------------|

B |---------------------------------------|

G |---------------------------------------|

D |---------------------------------------| x2

A |---------------------------------------|

D |-1-3-1-3-1-3-3-1-3-1-3-3-1-3-1-3-1-3^4-|

 

 

Verse

 

e |---------------------------------------|

B |---------------------------------------|

G |---------------------------------------|

D |---------------------------------------| x2

A |---------------------------------------|

D |-1-3-1-3-1-3-3-1-3-1-3-3-1-3-1-3-1-3^4-|

Spiderman, Spiderman...

 

Does what ever a spider can.

 

 

e |-------------|

B |-------------|

G |-------------|

D |-------------| x2

A |-------------|

D |-4-6-4-6-4-6-|

Spins a web...

 

Sweet suprise...

 

 

e |---------------------------------------|

B |---------------------------------------|

G |---------------------------------------|

D |---------------------------------------|

A |---------------------------------------|

D |-1-3-1-3-1-3-3-1-3-1-3-3-1-3-1-3-1-3^4-|

Catches theives...

 

 

 

Chorus

 

e |-------|

B |-------|

G |-------|

D |-------|

A |-------|

D |-10\0--|

Look out...

 

 

e |-------------|

B |-------------|

G |-------------|

D |-------------|

A |-------------|

D |-10-8-6-8-6--|

Here comes the Spiderman...

 

 

etc..

etc..

 

 

Transcribed and submitted by Elliott Woolf 09/06/02

 

For critisism or corrections email: ellwoolf@hotmail.com

 

Click here to return to my Aerosmith tabs page

The Tablature is Copyright its respective owners.

Sign Up For My Newsletter
Subscribe | Unsubscribe

Site Map | Disclaimer | Privacy Policy | Media Kit | Submissions/Corrections

Website © 2000-2014 mattsmusicpage.com. All rights reserved.

Legal & DMCA: Matt's Music Page has been providing lyrics and tabs in a legal way, paying royalties each year to a few organizations. Then, all lyrics and tabs were removed from the site. Now, there's a new owner to the site, which purchased it August 26, 2014, and he is in negotiation to obtain licensing from BMI at the moment. If you have a specific DMCA request -- please do not hesitate to contact me via the contact button on top. I will do my very best to keep this site fully legal.

Get our toolbar!

 

VINTAGE SORRENTO MUSIC JEWELRY BOX
$45.0
VINTAGE SORRENTO MUSIC JEWELRY BOX picture


VINTAGE LACQUERED MUSIC BOX JAPAN
$25.99
VINTAGE LACQUERED MUSIC BOX JAPAN picture


Vintage Kehlsteinhaus Bavaria Germany Colorscope Cow Bell View Master Music Box
$8.99
Vintage Kehlsteinhaus Bavaria Germany Colorscope Cow Bell View Master Music Box picture


VINTAGE SCHMIDT Signed Collectible Musical Turning Clown
$9.99
VINTAGE  SCHMIDT Signed Collectible Musical Turning Clown picture


Vintage - Linen - Postcard - Stage - Radio City Music Hall - New York City
$3.75
Vintage - Linen - Postcard - Stage - Radio City Music Hall - New York City   picture