Your One-Stop Source For
Music Lyrics
Bass and Guitar Tabs
and More...
Music Lyrics Bass and Guitar Tabs

 

The Tabs Are Below

Learn To Read Tab
Chords Handbook
Corrections & Additions
Get Official Tab
More Aerosmith tabs @ 911Tabs

 

AEROSMITH

"Seasons of Wither"

from _Get Your Wings_

(also on _Gems_ and _Pandora's Box_)

 

 

 

Intro Fig. (7x)

e+-----------------|-----------------| On the -----|

B+-----------------|-----------------| last rep -----|

G+-----0-----0-----|-----0-----0-----| substitute ---0-|

D+---0-----0-----0-|---2-----3-----3-| these for -----|

A+-------1---------|-0-----1-----1---| the last -3---|

E+-3-----------3---|-----------------| two notes: -----|

 

 

Bridge Fig. (4x)

D C D C Bb F

|-----------------|-----------------| Replace |-----------------|

|-7-----7---------|-7-----7---5-----| the last |-7-7---5---3-----|

|-7-----7---------|-7-----7---5-----| measure |-7-7---5---3-----|

|-7-----7---------|-7-----7---5-----| of the |-7-7---5---3---3-|

|-5-----5---------|-5-----5---3-----| last rep |-5-5---3---1---3-|

|-----------------|-----------------| with: |---------------1-|

 

 

Verse Fig. (5x)

|-----------------|-----------------|-----------------|-----------------|

|-----------------|-----------------|-----------------|-----------------|

|-----2-----0-----|-----2-----0-----|-----2-----2-----|-----0-----0-----|

|---0-----0-----0-|---0-----0-----0-|---0-----0-----0-|---0-----0-----0-|

|-----------------|-----------------|-----------------|-----------------|

|-0-----0-----0---|-1-----1-----1---|-2-----2-----2---|-3-----3-----3---|

 

-blues hearted lady, sleepy was she

-love for the devil brought her to me

-seas of a thousand drawn to her sin

-Seasons of Wither holdin' me in

 

 

CHORUS:

~~~~~~

|-----------------|-----------------|-----------------|

|-----------------|-----------------|-----------------|

|-----0-----0-----|-----0-----0-----|-----2-----0-----|

|---0-----0-----0-|---2-----2-----2-|---0-----0-----0-|

|-----------------|-3-----3-----3---|-2-----2-----2---|

|-3-----3-----3---|-----------------|-----------------|

 

|-----------------|-----------------|-----------------|

|-----------------|-----------------|-----------------|

|-----2-----0-----|-----2-----0-----|-----0-----0-----|

|---0-----0-----0-|---0-----0-----0-|---0-----0-----0-|

|-----------------|-----------------|-----------------|

|-0-----0-----0---|-1-----1-----1---|-3-----3-----3---|

 

-ooh always me, I feel so badly for you

 

(repeat last 6 measures)

-ooh always me, I feel so sadly for you at times

 

|-----------------|-----------------|-----------------|

|-----------------|-----------------|-----------------|

|-----0-----0-----|-----0-----0-----|-----0-----0-----|

|---0-----0-----0-|---0-----0-----0-|---0-----0-----0-|

|-0-----0-----0---|-1-----1-----1---|-3-----3-----3---|

|-----------------|-----------------|-----------------|

 

-bound to lose your mind

-live on borrowed time

-take the wind right out of your sails

 

[end CHORUS]

 

 

w/Bridge Fig. (6x)

-fireflies dance in the heat of

-hound dogs that bay at the moon

-my ship leaves in the midnight

-can't say I'll be back too soon

 

w/Verse Fig. (4x)

-they awaken far far away

-heat of my candle show me the way

-seas of a thousand drawn to her sin

-Seasons of Wither holdin' me in

 

[CHORUS]

 

Bridge Fig. (4x)

 

Verse Fig. (first 3 measures only)

 

Intro Fig. (4x)

 

end on D chord (x5777x).

 

--------------------

 

For some reason, this song was mixed with the guitar section very

quiet. So, don't blame me if some of this is not right--especially

the "ooh, always me" part! Treat this tab as just one person's

conception of the song, if you wish. :-) The lyrics are denoted

by hyphens and correspond to the tab section right above them.

 

There is a fill near the end that goes something like..

 

--------------12------------------------------------------------------

-15-------15----------------------------15----------------------------

------------------14b16r14-12----14-----14b16r14--12-------[24]-------

-----------------------------------------------------------harmonic---

----------------------------------------------------------------------

----------------------------------------------------------------------

 

"Livin', lovin' getting loose

Masturbatin' with a noose

Now someone's kickin' out the chair!" -- Aerosmith

 

 

Click here to return to my Aerosmith tabs page

The Tablature is Copyright its respective owners.

Sign Up For My Newsletter
Subscribe | Unsubscribe

Site Map | Disclaimer | Privacy Policy | Media Kit | Submissions/Corrections

Website © 2000-2014 mattsmusicpage.com. All rights reserved.

Legal & DMCA: Matt's Music Page has been providing lyrics and tabs in a legal way, paying royalties each year to a few organizations. Then, all lyrics and tabs were removed from the site. Now, there's a new owner to the site, which purchased it August 26, 2014, and he is in negotiation to obtain licensing from BMI at the moment. If you have a specific DMCA request -- please do not hesitate to contact me via the contact button on top. I will do my very best to keep this site fully legal.

Get our toolbar!