Your One-Stop Source For
Music Lyrics
Bass and Guitar Tabs
and More...
Music Lyrics Bass and Guitar Tabs

 

The Tabs Are Below

Learn To Read Tab
Chords Handbook
Corrections & Additions
Get Official Tab
More Aerosmith tabs @ 911Tabs

I WANNA KNOW WHY

 

intro

e------------------------------------|----------------------------

B------------------------------------|----------------------------

G--4---4--4-4------------0-0-2-2--x3-|-4--4--4-4------------------

D--4---4--4-4--2---2-2-2-0-0-2-2-----|-4--4--4-4--2---------------

A--2---2--2-2--2---2-2-2-----0-0-----|-2--2--2-2--2---------------

E--------------0---0-0-0-3-3---------|------------0---------------

 

verse

e-----------------------------------------------------------------

B-----------------------------------------------------------------

G--4--4--4-4--4--4--4-4--4--4--4-4-------------0-0-2-2------------

D--4--4--4-4--4--4--4-4--4--4--4-4---2---2-2-2-0-0-2-2------------

A--2--2--2-2--2--2--2-2--2--2--2-2---2---2-2-2-----0-0------------

E------------------------------------0---0-0-0-3-3----------------

 

chorus

e-----------------------------------------------------------------

B-----------------------------------------------------------------

G--6---6---6-6-------------------4---4---4-4----------------------

D--6---6---6-6----4---4---4-4----4---4---4-4----2---2---2-2-------

A--4---4---4-4----4---4---4-4----2---2---2-2----2---2---2-2-------

E-----------------2---2---2-2-------------------0---0---0-0-------

 

Transcribed by DENIS JACOB <EDJ1234@Umoncton.Ca>

 

+-----------------------------------------+

|Denis Jacob edj1234@deneb.ci.umoncton.ca |

|KORN ON THE KOB's Official Homepage |

|http://eve.info.umoncton.ca:8080/~pc/kotk|

|email us at: korn_on_the_kob@hotmail.com |

+-----------------------------------------+

 

#----------------------------------PLEASE NOTE---------------------------------#

#This file is the author's own work and represents their interpretation of the #

#song. You may only use this file for private study, scholarship, or research. #

#------------------------------------------------------------------------------##

 

I Wanna Know Why

(Tyler/Perry)

 

 

I have not figured out all of the guitar parts, but here are the intro and

the chords. The lyrics were borrowed from Nicole's Aerosmith Page, another

great site!!!

 

Intro:

B5 E5 B5 E5 B5

E:----------------------------------------------------------------------

B:----------------------------------------------------------------------

G:----------------------------------------------------------------------

D:--4--6--4-4-4------2----------------------------2---------------------

A:--2--2--2-2-2--2-2---4/5-5/7-7/9-11--9-9-9--2-2---4/5-5/7-7/9-11--9-9-

E:---------------0-0---2/3-3/5-5/7--7--7-7-7--0-0---2/3-3/5-5/7--7--7-7-

 

E5 B5 E5

------------------------------|

------------------------------|

------------------------------|

----2-------------------------|

2-2---4/5-7-9-11--9-9-9--2----|

0-0---2/3-5-7--7--7-7-7--0----|

 

Verse 1: Note: When B5 and E5 are recalled in the verses and outro, play a

figure similar to that found in the intro.

 

B5 B5 B5 E5

kickin' down the road feelin' mighty slowed with the likes of you

 

B5 B5 B5 E5

gettin' mighty spaced never had a taste of what you're goin' through

 

B5 B5 B5

I can't bitch went from rags to riches then to ragtime screamin' the

 

E5

blues

 

 

Chorus:

C#5 F#5 B5 E5

I wanna know why everybody's good intention try to make a fool out of me

 

C#5 F#5 B5

I wanna know why everybody's good intention gotta make a fool

 

B5 B5 E5

gotta make a fool try to make a fool out of me

 

 

Verse 2:

 

B5 B5 B5 E5

swing low sweet cherry o when a strange love showed me the way

 

B5 B5 B5 E5

ya see more can't keep a score when the whore's comin' on for the play

 

 

Chorus:

C#5 F#5 B5 E5

I wanna know why everybody's good intention gotta make a fool out of me

 

C#5 F#5 B5

I wanna know why everybody's good intention gotta make a fool

 

B5 B5 C5

gotta make a fool try to make a fool out of me

 

E5-A5 D5-G5 G5-F#5-E5-A5 D5-C#5

 

 

Verse 3:

 

B5 B5 B5 E5

E. Poe eatin' crow wonder if he knowed that the raven was mad

 

B5 B5 B5 E5

time passed and words lost the last of the best thing he ever had

 

 

Chorus:

C#5 F#5 B5 E5

I wanna know why everybody's good intention gotta make a fool out of me

 

C#5 F#5 B5

I wanna know why everybody's good intention gotta make a fool

 

B5 B5 C5

gotta make a fool try to make a fool out of me

 

E5-A5 D5-G5 G5-F#5-E5-A5 D5-C#5

 

 

Verse 4:

 

B5 B5 B5 E5

oh play rough can't get enough so they try to make a fool out of me,

 

lordy

 

 

Outro:

 

B5 E5 B5 E5 B5 E5

ain't foolin' me ya ain't ghoulin' me ain't foolin me

 

B5 E5

ya ain't ghoulin' me

 

 

 

Transcribed by Jeff Sayers

mailto:asayers@centuryinter.net

 

 

 

Click here to return to my Aerosmith tabs page

The Tablature is Copyright its respective owners.

Sign Up For My Newsletter
Subscribe | Unsubscribe

Site Map | Disclaimer | Privacy Policy | Media Kit | Submissions/Corrections

Website © 2000-2014 mattsmusicpage.com. All rights reserved.

Legal & DMCA: Matt's Music Page has been providing lyrics and tabs in a legal way, paying royalties each year to a few organizations. Then, all lyrics and tabs were removed from the site. Now, there's a new owner to the site, which purchased it August 26, 2014, and he is in negotiation to obtain licensing from BMI at the moment. If you have a specific DMCA request -- please do not hesitate to contact me via the contact button on top. I will do my very best to keep this site fully legal.

Get our toolbar!