Your One-Stop Source For
Music Lyrics
Bass and Guitar Tabs
and More...
Music Lyrics Bass and Guitar Tabs

 

The Tabs Are Below

Learn To Read Tab
Chords Handbook
Corrections & Additions
Get Official Tab
More Aerosmith tabs @ 911Tabs

Song: I Don't Want To Miss a Thing

Artist: Aerosmith

Album: Armageddon

Tabbed by: Alden Clarke <flush15@hotmail.com>

 

Chords:

D - x00232

Dsus2- x00230

Asus - x02230

A - x02220

Em7 - 022030

E - 022100

G - 320033

C - x32010

A# - x13331

F - 133211

Dm - x00231

F#m4 - 244200

G#m4 - 466400

B4 - x24400

Bm7 - x24430

C#m7 - x46650

 

Intro riff arranged for guitar:

e ----------------------14-12----------12------------------------

B -------------------12-------15-14-15----12---12-15-14-12-------

G ---------------------------------------------------------14----

D ---4-2-------2-------------------------------------------------

A -2-----5-4-5---2-----------------------------------------------

E ---------------------------------------------------------------

 

Verse 1 riff arranged for guitar:

e ---------------------------------------------------------------

B -----0-----0-----0-----0-----0-----0-----0-----0-----0-----0---

G ---2-----2-----2-----2-----2-----2-----2-----2-----2-----2-----

D -4-----4-----2-----2-----4-----4-----4-----4-----5-----5-------

A ---------------------------------------------------------------

E ---------------------------------------------------------------

* repeat first measure twice

then play this last measure

e -------------------------------------|-------------------------

B -----0-----0-----0-----0-----0-----0-|-----0-----0-----0-----0-

G ---2-----2-----2-----2-----2-----2---|---2-----2-----2-----2---

D -4-----4-----2-----2-----2-----2-----|-4-----4-----5-----5-----

A -------------------------------------|-------------------------

E -------------------------------------|-------------------------

 

Verse 2 riff (Repeat first measure of verse 1 then play this)

e -------------------------------------------------------------------------

B -----0-----0-----0-----0-----0-----0-----0-----0-----0-----0-----0-----0-

G ---2-----2-----2-----2-----2-----2-----2-----2-----2-----2-----2-----2---

D -4-----4-----2-----2-----4-----4-----4-----4-----2-----2-----5-----5-----

A -------------------------------------------------------------------------

E -------------------------------------------------------------------------

 

Intro: (With intro riff)

F#m4 G#m4 B4

F#m4 G#m4 B4

F#m4 G#m4 B4

F#m4 G#m4 B4

 

Verse 1:

I could stay awake just to hear you breathing

Watch you smile while you are sleeping

While you're far away and dreaming

I could spend my life in this sweet surrender

I could stay lost in this moment - forever

Asus A

Every moment spent with you is a moment I treasure

 

Chorus:

Dsus2 Asus

I don't want to close my eyes

Em7

I don't want to fall asleep

G Asus

'Cause I'd miss you baby, and I don't want to miss a thing

Dsus2 Asus

'Cause even when I dream of you

Em7

The sweetest dream would never do

G Asus Dsus2 Asus Em7

I'd still miss you baby and i don't want to miss a thing

 

Verse 2:

Lying close to you feeling your heart beating

And I'm wondering what you're dreaming

Wondering if it's me you're seeing

Then I kiss your eyes and thank God we're together

I just want to stay with you

Asus A

In this moment forever, forever and ever

 

Chorus:

I don't want to close my eyes

I don't want to fall asleep

'Cause I'd miss you baby, and I don't want to miss a thing

'Cause even when I dream of you

The sweetest dream would never do

D

I'd still miss you baby and I don't want to miss a thing

 

Interlude:

C

And I don't want to miss one smile

G

I don't want to miss one kiss

A# F

I just want to be with you right here with you just like this

C

And I just want to hold you close

G

I feel your heart so close to mine

Dm E

And we'll stay here in this moment for all the rest of time

Asus A

Yeah, yeah, yeah, yeah, yeah

 

Chorus:

I don't want to close my eyes

I don't want to fall asleep

'Cause I'd miss you baby, and I don't want to miss a thing

'Cause even when I dream of you

The sweetest dream would never do

Dsus2

I'd still miss you baby and I don't want to miss a thing

 

I don't want to close my eyes

I don't want to fall asleep

'Cause I'd miss you baby, and I don't want to miss a thing

Bm7 C#m7

'Cause even when I dream of you

The sweetest dream would never do

I'd still miss you baby and I don't want to miss a thing

 

Dsus2 Asus

Don't want to close my eyes

Em7 G

I don't want to fall asleep, yeah

Asus

I don't want to miss a thing

 

Dsus2 Asus Em7 G Asus (To fade)

Click here to return to my Aerosmith tabs page

The Tablature is Copyright its respective owners.

Sign Up For My Newsletter
Subscribe | Unsubscribe

Site Map | Disclaimer | Privacy Policy | Media Kit | Submissions/Corrections

Website © 2000-2014 mattsmusicpage.com. All rights reserved.

Legal & DMCA: Matt's Music Page has been providing lyrics and tabs in a legal way, paying royalties each year to a few organizations. Then, all lyrics and tabs were removed from the site. Now, there's a new owner to the site, which purchased it August 26, 2014, and he is in negotiation to obtain licensing from BMI at the moment. If you have a specific DMCA request -- please do not hesitate to contact me via the contact button on top. I will do my very best to keep this site fully legal.

Get our toolbar!