Your One-Stop Source For
Music Lyrics
Bass and Guitar Tabs
and More...
Music Lyrics Bass and Guitar Tabs

 

The Tabs Are Below

Learn To Read Tab
Chords Handbook
Corrections & Additions
Get Official Tab
More Aerosmith tabs @ 911Tabs

"Get The Lead Out"

From the Aerosmith album "ROCKS"

 

Tabbed by: Joseph S. Sweesy {a.k.a zeews} ======================

Date/Time: Sunday, March 25th,2001 10:45 pm \\ = Slide Down

h = Hammer-on

Intro # = Play as a Triplet

|----------------------------------------------------------| (EX. 6#)

|----------------------------------------------------------| ^ = Gradual Bend

|--------------------8---8------------------8---8----------|======================

|--------------------8-6-8------------------8-6-8----------|

|-----------------6--6-6-6---------------6--6-6-6----------|

|-15\\------6-8-9-------------0h6#-8#-#9-------------------|

 

Intro:continued

|---------------------------------------------------------------------------|

|---------------------------------------------------------------------------|

|---------------8-----------------------------------------------------------|

|---------------8-------------------------6---------------6-----------------|

|------------6--6--------6--------9-8-6-----9-8-6-----8-9----8-9-6----------|

|-0h6#-8#-9#---------------9-8-6--------9---------------------------8-6-----|

 

 

Intro:continued

|----------------------------------------------------------------|

|----------------------------------------------------------------|

|----------------------------------------------------------------|

|-----6---------------------6---------------------6----9^--------|

|-8-9----8-9-6----------8-9----8-9-6----------8-9------9^--------|

|---------------8-6-------------------8-6--------------7^--------|

Whoooaaaaa....

 

All the parts of the intro are played through-out the entire song,

just listen to song for the timing and placement of each of the riffs.

 

 

Well...there you have it, the intro to Get the lead out, by Aerosmith.

I am almost 100% sure it is correct.

I am still working on the solo, but this will give a general idea as to

how it is played.

If you have any questions or corrections, PLEASE feel free to E-mail

me. I will give you credit towards the correction. My E-mail addy is....

 

migooch@home.com

 

Click here to return to my Aerosmith tabs page

The Tablature is Copyright its respective owners.

Sign Up For My Newsletter
Subscribe | Unsubscribe

Site Map | Disclaimer | Privacy Policy | Media Kit | Submissions/Corrections

Website © 2000-2014 mattsmusicpage.com. All rights reserved.

Legal & DMCA: Matt's Music Page has been providing lyrics and tabs in a legal way, paying royalties each year to a few organizations. Then, all lyrics and tabs were removed from the site. Now, there's a new owner to the site, which purchased it August 26, 2014, and he is in negotiation to obtain licensing from BMI at the moment. If you have a specific DMCA request -- please do not hesitate to contact me via the contact button on top. I will do my very best to keep this site fully legal.

Get our toolbar!