Your One-Stop Source For
Music Lyrics
Bass and Guitar Tabs
and More...
Music Lyrics Bass and Guitar Tabs

 

The Tabs Are Below

Learn To Read Tab
Chords Handbook
Corrections & Additions
Get Official Tab
More Aerosmith tabs @ 911Tabs

 

Tab for:Get a Grip

By: Aerosmith

Tabbed by:Ian Nunneley

 

 

Intro:

1--3----1----5---3----------------------------------

2--3----1----5---3----------------------------------

3--4----2----6---4----------------------------------

4--5----3----7---5----------------------------------

5--5----3----7---5----------------------------------

6--3----1----5---3----------------------------------

 

 

1---------------------------------------------------

2---------------------------------------------------

3---------------------------------------------------

4---------------------------------------------------

5-----------------------2--3--4---------------------

6------------5--------------------------------------

 

repeat 13x, then:

 

 

1---------------------------------------------------

2---------------------------------------------------

3---------------------------------------------------

4---------------------------------------------------

5-----4---4---2--------------------4---4---2--------

6--5-------------4------2-----5----------------4---2

 

repeat 3x

 

 

1---------------------------------------------------

2---------------------------------------------------

3---------------------------------------------------

4----5-----------3------------2---------------------

5----5-----------3------------2---------------------

6----3-----------1------------0---------------------

 

 

1---------------------------------------------------

2---------------------------------------------------

3---3--4--5---3--4--5---3--4--5--5--4--3------------

4-5---------5---------5-----------------------------

5---------------------------------------------------

6---------------------------------------------------

 

 

1---------------------------------------------------

2---------------------------------------------------

3---5--6--7---5--6--7---5--6--7--7--6--5------------

4-7---------7---------7-----------------------------

5---------------------------------------------------

6---------------------------------------------------

 

 

 

 

1--3--3---5--5-----7--7---9--9----------------------

2--3--3---5--5-----7--7---9--9----------------------

3--4--4---6--6-----8--8--10-10----------------------

4--5--5---7--7-----9--9--11-11----------------------

5--5--5---7--7-----9--9--11-11----------------------

6--3--3---5--5-----7--7---9--9----------------------

 

 

Hope you can play it. If you have any requests or

comments, email me at:

Spider1444@aol.com

 

ENJOY!!!

 

 

 

 

 

 

Click here to return to my Aerosmith tabs page

The Tablature is Copyright its respective owners.

Sign Up For My Newsletter
Subscribe | Unsubscribe

Site Map | Disclaimer | Privacy Policy | Media Kit | Submissions/Corrections

Website © 2000-2014 mattsmusicpage.com. All rights reserved.

Legal & DMCA: Matt's Music Page has been providing lyrics and tabs in a legal way, paying royalties each year to a few organizations. Then, all lyrics and tabs were removed from the site. Now, there's a new owner to the site, which purchased it August 26, 2014, and he is in negotiation to obtain licensing from BMI at the moment. If you have a specific DMCA request -- please do not hesitate to contact me via the contact button on top. I will do my very best to keep this site fully legal.

Get our toolbar!