Your One-Stop Source For
Music Lyrics
Bass and Guitar Tabs
and More...
Music Lyrics Bass and Guitar Tabs

 

The Tabs Are Below

Learn To Read Tab
Chords Handbook
Corrections & Additions
Get Official Tab
More Aerosmith tabs @ 911Tabs

 

Dream On

By Aerosmith

Tabbed AltGuitar

Note: This is one of my few text tabs, most of mine are

in TabIt form. (This was extracted from a TabIt

file I wrote)

For More Really Cool, and Accurate Tab Type:

AltGuitar

In file search

 

E :4---4---3---3---|4---4---3---3---|4---4---6---6---|8---8---8-------|

B :6---6---4---4---|3---3---2---2---|6---6---6---6---|6---6---6-------|

G :--5---5---5---5-|------5-5-5---5-|--5-------5---5-|--5---5---------|

D :----------------|----------------|----------------|----------------|

A :----------------|----------------|----------------|----------------|

E :----------------|----------------|----------------|----------------|

 

E :4---4---3---3---|4---4---3---3---|4---4---6---6---|8---8-(8)-6-4---6-|

B :6---6---4---4---|3---3---2---2---|6---6---6---6---|6---6-(6)-6-6---6-|

G :--5---5---5---5-|------5-5-5---5-|--5-------5---5-|------------------|

D :----------------|----------------|----------------|------------------|

A :----------------|----------------|----------------|------------------|

E :----------------|----------------|----------------|------------------|

 

E :8~-~-~-~(8)---8\-6-----|----------------|

B :9--------9----9\-6---6-|----------------|

G :-----------------------|6-5-6-5-6-5-6-5-|

D :-----------------------|----------------|

A :-----------------------|----------------|

E :-----------------------|----------------|

 

E :-------------- --|------------------|

B :-----568689891199|898668646221/13---|

G :65356--------- --|------------------|

D :-------------- --|------------------|

A :-------------- --|------------------|

E :-------------- --|------------------|

 

 

Click here to return to my Aerosmith tabs page

The Tablature is Copyright its respective owners.

Sign Up For My Newsletter
Subscribe | Unsubscribe

Site Map | Disclaimer | Privacy Policy | Media Kit | Submissions/Corrections

Website © 2000-2014 mattsmusicpage.com. All rights reserved.

Legal & DMCA: Matt's Music Page has been providing lyrics and tabs in a legal way, paying royalties each year to a few organizations. Then, all lyrics and tabs were removed from the site. Now, there's a new owner to the site, which purchased it August 26, 2014, and he is in negotiation to obtain licensing from BMI at the moment. If you have a specific DMCA request -- please do not hesitate to contact me via the contact button on top. I will do my very best to keep this site fully legal.

Get our toolbar!

 

BRAND NEW KEY OF C HOHNER MINI HARMONICA HARP KEYRING KEYCHAIN KEY RING CHAIN
$8.21
BRAND NEW KEY OF C HOHNER MINI HARMONICA HARP KEYRING KEYCHAIN KEY RING CHAIN picture


RISING SONS BAND *2X3 FRIDGE MAGNET* VOCALS GUITAR MANDOLIN DOBRO HARMONICA SONG
$3.99
RISING SONS BAND *2X3 FRIDGE MAGNET* VOCALS GUITAR MANDOLIN DOBRO HARMONICA SONG picture


Vtg Christmas Angel Baby Girl W Harmonica Boy W Book SET OF 2 W GOLD WINGS
$125.0
Vtg Christmas Angel Baby Girl W Harmonica Boy W Book SET OF 2 W GOLD WINGS  picture


Beautiful Hand Carved Jewelry Trinket Jewelry Box Harmonica Case Bone And Brass
$14.5
Beautiful Hand Carved Jewelry Trinket Jewelry Box Harmonica Case Bone And Brass picture


BRAND NEW* HOHNER BOB DYLAN SIGNATURE LIMITED EDITION HARMONICA COLLECTORS ITEM
$140.19
BRAND NEW* HOHNER BOB DYLAN SIGNATURE LIMITED EDITION HARMONICA COLLECTORS ITEM picture