Your One-Stop Source For
Music Lyrics
Bass and Guitar Tabs
and More...
Music Lyrics Bass and Guitar Tabs

 

The Tabs Are Below

Learn To Read Tab
Chords Handbook
Corrections & Additions
Get Official Tab
More Aerosmith tabs @ 911Tabs

NOTE: This song is largely (if not entirely) improvisational. Use

what's here to jam.

 

intro-

~~~~~~~~~~~~~~~~~ ~~~~~~~~~~~~~~~~

E------------------------------------------------------|

B----(6)-------------------6---------------------------|

G--5b---------------------(5)--------------------------|

D------------------------------------------------------|

A------------------------------------------------------|

E------------------------------------------------------|

don't pick -- notes in parentheses unintentional

(a la Jimi Hendrix in "Foxy Lady")

 

P.S.

E------------------------------------------------------|

B------------------------------------------------------|

G----------------2-----------2-----------2-------------|

D----------------2--4--5--4--2--4--5--4--2-------------|

A--x/------------0--0--0--0--0--0--0--0--0-------------|

E--x/--(9)\14/-----------------------------------------|

(etc...)

 

 

Click here to return to my Aerosmith tabs page

The Tablature is Copyright its respective owners.

Sign Up For My Newsletter
Subscribe | Unsubscribe

Site Map | Disclaimer | Privacy Policy | Media Kit | Submissions/Corrections

Website © 2000-2014 mattsmusicpage.com. All rights reserved.

Legal & DMCA: Matt's Music Page has been providing lyrics and tabs in a legal way, paying royalties each year to a few organizations. Then, all lyrics and tabs were removed from the site. Now, there's a new owner to the site, which purchased it August 26, 2014, and he is in negotiation to obtain licensing from BMI at the moment. If you have a specific DMCA request -- please do not hesitate to contact me via the contact button on top. I will do my very best to keep this site fully legal.

Get our toolbar!