Your One-Stop Source For
Music Lyrics
Bass and Guitar Tabs
and More...
Music Lyrics Bass and Guitar Tabs

 

The Tabs Are Below

Learn To Read Tab
Chords Handbook
Corrections & Additions
Get Official Tab
More Aerosmith tabs @ 911Tabs

Aerosmith

song:Beyond Beautiful

album:Just Push Play

 

drop D tuning (low E down to D)

 

the dailtone at the beginning is an F. if you want to play it, play it like

this:

 

 

E|-------

B|-------

G|--10---

D|-------

A|-------

E|-------

 

intro like this..do twice

 

 

F

E|-----------------------

B|-----------------------

G|--10p8--10p8---10------

D|------------11----10---

A|-----------------------

E|-----------------------

 

then it goes something like this:

 

 

E|--------------------------*

B|--------------------------*

G|--------------------------*

D|-0-0--0--0-0---0-0--0-3---*

A|-0-0--0--0-0---0-0--0-3---*

E|-0-0--0--0-0---0-0--0-3---*

 

do that twice, then this comes in over that

 

E|----------------------

B|--13---13p12---12/15--

G|----------------------

D|----------------------

A|----------------------

E|----------------------

 

for the first part of the verse, just hit the bottom 3 strings open when

needed (listen to the song)

 

then for the second part of the verse, do the part with the asterisks next

to it.

 

 

chorus:

 

 

 

yeah, she's'a beyond beautiful, yeah she never been no body's

E|------------------------------------------------------------------

B|------------------------------------------------------------------

G|------------------------------------------------------------------

D|-11----------------------6--------8------------------------3------

A|-11----------------------6--------8------------------------3------

E|-11----------------------6--------8------------------------3------

 

fool that you be stuck with, yeah, it's all about me and you

E|-------------------------------------------------------------------

B|-------------------------------------------------------------------

G|-------------------------------------------------------------------

D|---6---------------------------11--------------------6-------------

A|---6---------------------------11--------------------6-------------

E|---6---------------------------11--------------------6-------------

 

believe it or not, this love that we got, is beyond beautiful

E|-------------------------------------------------------------------

B|-------------------------------------------------------------------

G|-------------------------------------------------------------------

D|------8-----------------------------------------11-----13----------

A|------8-----------------------------------------11-----13----------

E|------8-----------------------------------------11-----13----------

 

that's all of the song except for the solo. i have bits and pieces of it,

i'll submit it when its done.

 

tabbed by mike

send email to prager@hotmail.com

 

 

Click here to return to my Aerosmith tabs page

The Tablature is Copyright its respective owners.

Sign Up For My Newsletter
Subscribe | Unsubscribe

Site Map | Disclaimer | Privacy Policy | Media Kit | Submissions/Corrections

Website © 2000-2014 mattsmusicpage.com. All rights reserved.

Legal & DMCA: Matt's Music Page has been providing lyrics and tabs in a legal way, paying royalties each year to a few organizations. Then, all lyrics and tabs were removed from the site. Now, there's a new owner to the site, which purchased it August 26, 2014, and he is in negotiation to obtain licensing from BMI at the moment. If you have a specific DMCA request -- please do not hesitate to contact me via the contact button on top. I will do my very best to keep this site fully legal.

Get our toolbar!