Your One-Stop Source For
Music Lyrics
Bass and Guitar Tabs
and More...
Music Lyrics Bass and Guitar Tabs

 

The Tabs Are Below

Learn To Read Tab
Chords Handbook
Corrections & Additions
Get Official Tab
More Aerosmith tabs @ 911Tabs

This is the Aerosmith version of the Beatles - Come Together

 

This song is played in standard tuning

 

> = let ring

 

\ = slide to the next note

 

G --------------10>------- X8

D --0--0--10-12-------12>-

A ------------------------

E ------------------------

 

G --------------------------------------------------

D --------------10>--------------------10>----------

A --0--0--10-12-------12>--0--0--10-12-------12\----

E ------------------------------------------------3-

 

G --------------10>------- X8

D --0--0--10-12-------12>-

A ------------------------

E ------------------------

 

G --------------------------------------------------

D --------------10>--------------------10>----------

A --0--0--10-12-------12>--0--0--10-12-------12\----

E ------------------------------------------------3-

 

G ---------------------------

D ---------------------------

A --2-2-2-2-2-2-0----------0-

E -----------------3-3-3-3---

 

G --------------10>------- X8

D --0--0--10-12-------12>-

A ------------------------

E ------------------------

 

G --------------------------------------------------

D --------------10>--------------------10>----------

A --0--0--10-12-------12>--0--0--10-12-------12\----

E ------------------------------------------------3-

 

G ---------------------------

D ---------------------------

A --2-2-2-2-2-2-0----------0-

E -----------------3-3-3-3---

 

G --------------10>------- X8

D --0--0--10-12-------12>-

A ------------------------

E ------------------------

 

G ------------------------ X4

D --------------10>-------

A --0--0--10-12-------12>-

E ------------------------

 

G --------------10>------- X6

D --0--0--10-12-------12>-

A ------------------------

E ------------------------

 

G --------------------------------------------------

D --------------10>--------------------10>----------

A --0--0--10-12-------12>--0--0--10-12-------12\----

E ------------------------------------------------3-

 

G ---------------------------

D ---------------------------

A --2-2-2-2-2-2-0----------0-

E -----------------3-3-3-3---

 

G --------------10>------- X4

D --0--0--10-12-------12>-

A ------------------------

E ------------------------

 

G ----------------------------10- X12 or intill song ends

D --0--0--12--12--0--0--10-12----

A -------------------------------

E -------------------------------

 

 

Tabbed by me, Needles Kane Enjoy!

 

 

Click here to return to my Aerosmith bass tabs page

The Tablature is Copyright its respective owners.

Sign Up For My Newsletter
Subscribe | Unsubscribe

Site Map | Disclaimer | Privacy Policy | Media Kit | Submissions/Corrections

Website © 2000-2014 mattsmusicpage.com. All rights reserved.

Legal & DMCA: Matt's Music Page has been providing lyrics and tabs in a legal way, paying royalties each year to a few organizations. Then, all lyrics and tabs were removed from the site. Now, there's a new owner to the site, which purchased it August 26, 2014, and he is in negotiation to obtain licensing from BMI at the moment. If you have a specific DMCA request -- please do not hesitate to contact me via the contact button on top. I will do my very best to keep this site fully legal.

Get our toolbar!

 

Hard Rock Pin Las Vegas 4th of july red white and blue guitar
$5.0
Hard Rock Pin Las Vegas 4th of july red white and blue guitar picture


Hard Rock Pin Hollywood Fl Bell Girl with dice luggage and guitar
$5.0
Hard Rock Pin Hollywood Fl Bell Girl with dice luggage and guitar picture


Hard Rock Pin Las Vegas King of Clubs Guitar rare only 3 lines of info on back
$5.0
Hard Rock Pin Las Vegas King of Clubs Guitar rare only 3 lines of info on back picture


Hard Rock Pin Edmonton guitar pin
$5.0
Hard Rock Pin Edmonton guitar pin picture


Lladro Guitar Boy #4614 - Beautiful Piece of Lladro
$109.0
Lladro Guitar Boy #4614 - Beautiful Piece of Lladro picture