Your One-Stop Source For
Music Lyrics
Bass and Guitar Tabs
and More...
Music Lyrics Bass and Guitar Tabs

 

The Tabs Are Below

Learn To Read Tab
Chords Handbook
Corrections & Additions
Get Official Tab
More Aerosmith tabs @ 911Tabs

This heavy blues was originally written by Otis Rush, but the version by

Aerosmith is arranged and also recorded by John Mayalls Bluesbreakers.

The different guitar-parts are real fun to play as soon as you get the right

feeling for it, and that's important but not so hard. Improvise a lot, and

play with feeling!

 

/Henrik Lidbjörk, fam.lidbjork@swipnet.se

-----------------------------------------------------------------------------

 

ALL YOUR LOVE (Rush)

 

Tuning: Normal, EADGBE

 

/ = Slide up to

x = Percussive sound

b = Bend

h = Hammer on

~ = Let ring

 

 

INTRO:

 

Play the lead-line over the rhythm-riff, and make them fit together.

 

 

Lead-guitar

e|----------------------------|

B|----------------------------|

G|---/x---7b-5-------5b-------| x2

D|-------------7-(7)----7~----|

A|----------------------------|

E|----------------------------|

 

Rhythm-guitar

e|--------------------|

B|--------------------|

G|--------------------| x3

D|-------5-5-5-7------|

A|---5h7--------------|

E|---------------5----|

 

 

# Lead-guitar #

e|-------------------------------------------------------------------------|

B|-------------------------------------------------------------------------|

G|---/x--7b-5-------7~-------------/x---7b-5-------5b----------------------|

D|------------7-(7)--------------------------7-(7)----7~-------------------|

A|-------------------------------------------------------------------------|

E|-------------------------------------------------------------------------|

 

# Rhythm-guitar #

e|-------------------------------------------------------------------------|

B|-------------------------------------------------------------------------|

G|--------------------------5-5-5-7----------5-5-5-7-----------------------|

D|---------5-5-5-7------5h7--------------5h7------------------5-5-5-7------|

A|-----5h7---------5----------------5---------------------5h7--------------|

E|---------------------------------------------------5----------------5----|

 

 

[Repeat from #, play to the next # and continue below]

 

 

Lead-guitar

e|--------------------------------|

B|--------------------------------|

G|-------5------------------------|

D|---5-7---7-5--------------------|

A|-------------7-5----------------|

E|-----------------8-5------------|

 

 

VERSE 1:

 

In the Verse, the Rhythm- and lead-guitars play almost the same notes.

 

 

(Only vocal)

All your love I miss lovin'___

 

 

e|--------------------|

B|--------------------|

G|--------------------| x3

D|-------5-5-5-7------|

A|---5h7--------------|

E|---------------5----|

All your kiss I miss kissin'___

 

 

e|-------------------------------------------------------------------------|

B|-------------------------------------------------------------------------|

G|--------------------------5-5-5-7----------5-5-5-7-----------------------|

D|---------5-5-5-7------5h7--------------5h7------------------5-5-5-7------|

A|-----5h7---------5----------------5---------------------5h7--------------|

E|---------------------------------------------------5----------------5----|

...love I miss lovin'___ ...I miss kissin'___

 

 

e|-------------------------------------------------------------------------|

B|-------------------------------------------------------------------------|

G|--------------------------5-5-5-7----------5-5-5-7-----------------------|

D|---------5-5-5-7------5h7--------------5h7------------------5-5-5-7------|

A|-----5h7---------7----------------5---------------------5h7--------------|

E|---------------------------------------------------5----------------5----|

since I left you ba - by__ I never......was missin'___

 

 

[Repeat Verse]

 

 

INTERLUDE:

 

e|------------10----------10~------|

B|------11----------11-------------|

G|---12----12----12----12---(12~)--| x2

D|---------------------------------|

A|---------------------------------|

E|---------------------------------|

 

e|------------10-----------9----|

B|------11----------11-----9----|

G|---12----12----12----12--9----|

D|------------------------------|

A|------------------------------|

E|------------------------------|

 

e|------------10-------10-------------10-------10-------------10----------

B|------11-------11-------11----11-------11-------11----11-------11-------

G|---12----12-------12-------12----12-------12-------12----12-------12----

D|------------------------------------------------------------------------

A|------------------------------------------------------------------------

E|------------------------------------------------------------------------

(With slightly variations)

 

---9---9-8-7~--------------------|

---9---9-8-7~--------------------|

---9---9-8-7~---7b-5-------------|

----------------------7-5-7------|

---------------------------------|

----------------------------5----|

 

 

SOLO:

 

Here's the beginning of the guitar-solo. Improvise (blues-solo in the key

of A) the rest or transcribe it yourself. The rhythm-guitar plays a blues-

rhythm figure (key: A).

 

e|------------------------------------

B|----------------------5-------------

G|-------------5b---5-7---7-5-7b------

D|---7-7-7-5-7-------------------5----

A|------------------------------------

E|------------------------------------

 

 

"VERSE 2":

 

The lead-guitar plays more solo-pieces and blues-rhythms over a blues-

rhythm-figure by the bass.

Example of a blues-figure: (implied chords)

 

A x4 D x2 A x2 E x1 D x1 A x1-2

e|----------------------------------------------------------------------|

B|----------------------------------------------------------------------|

G|---------------2-4-5-4--------------------------2-4-5-4---------------|

D|---2-4-5-4-----0-0-0-0----2-4-5-4---------------0-0-0-0----2-4-5-4----|

A|---0-0-0-0----------------0-0-0-0----2-4-5-4---------------0-0-0-0----|

E|-------------------------------------0-0-0-0--------------------------|

All your lovin pretty baby...

 

 

[Repeat Verse (with different lyrics)]

 

 

[Harmonica-solo over blues-figure (by lead and rhythm-guitars)]

 

 

END:

 

Repeat Verse 1 with lots of variations by the lead-guitar and end like

a blues!

 

 

Click here to return to my Aerosmith tabs page

The Tablature is Copyright its respective owners.

Sign Up For My Newsletter
Subscribe | Unsubscribe

Site Map | Disclaimer | Privacy Policy | Media Kit | Submissions/Corrections

Website © 2000-2014 mattsmusicpage.com. All rights reserved.

Legal & DMCA: Matt's Music Page has been providing lyrics and tabs in a legal way, paying royalties each year to a few organizations. Then, all lyrics and tabs were removed from the site. Now, there's a new owner to the site, which purchased it August 26, 2014, and he is in negotiation to obtain licensing from BMI at the moment. If you have a specific DMCA request -- please do not hesitate to contact me via the contact button on top. I will do my very best to keep this site fully legal.

Get our toolbar!