Your One-Stop Source For
Music Lyrics
Bass and Guitar Tabs
and More...
Music Lyrics Bass and Guitar Tabs

 

The 3 Doors Down Guitar Tabs Are Below

Learn To Read Tab
Chords Handbook
Corrections & Additions
Get Official Tab
3 Doors Down tabs @ 911Tabs

Train - 3 Doors Down

 

 

 

 

Tuning: Open C

C G C G C e

Tempo:95 bpm

 

 

Intro

W S S S S E S S Q Q S S S S S S S S Q Q

E||-------------------|---------------------------|----------------------------|

C||-------------------|---------------------------|----------------------------|

G||-------------------|---------------------------|----------------------------|

C||-------------------|--0-0-0-0-3--0-0-----------|--2-3-3-2-3-3-2-3-----------|

G||-------------------|--0-0-0-0-3--0-0-----------|--2-3-3-2-3-3-2-3-----------|

C||-------------------|--0-0-0-0-3--0-0-----------|--2-3-3-2-3-3-2-3-----------|

 

 

S S S S S S S E. S E E S Q S E S H

---------------------------------|-------------------------|

---------------------------------|-------------------------|

---------------------------------|-------------------------|

--3-5-5-5-5-5-3-5----5-5--5----3-|--0----0-5----3-0--------|

--3-5-5-5-5-5-3-5----5-5--5----3-|--0----0-5----3-0--------|

--3-5-5-5-5-5-3-5~---5-5--5br--3-|--0----0-5br--3-0--------|

 

 

S S S S E S S Q Q S S S S S S S S Q Q

---------------------------|----------------------------|

---------------------------|----------------------------|

---------------------------|----------------------------|

--0-0-0-0-3--0-0-----------|--2-3-3-2-3-3-2-3-----------|

--0-0-0-0-3--0-0-----------|--2-3-3-2-3-3-2-3-----------|

--0-0-0-0-3--0-0-----------|--2-3-3-2-3-3-2-3-----------|

 

 

S S S S S S S E. S E E S Q S E S H

---------------------------------|-------------------------|

---------------------------------|-------------------------|

---------------------------------|-------------------------|

--3-5-5-5-5-5-3-5----5-5--5----3-|--0----0-5----3-0--------|

--3-5-5-5-5-5-3-5----5-5--5----3-|--0----0-5----3-0--------|

--3-5-5-5-5-5-3-5~---5-5--5br--3-|--0----0-5br--3-0--------|

 

 

S S S S E S S Q Q S S S S S S S S Q Q

---------------------------|----------------------------|

---------------------------|----------------------------|

---------------------------|----------------------------|

--0-0-0-0-3--0-0-----------|--2-3-3-2-3-3-2-3-----------|

--0-0-0-0-3--0-0-----------|--2-3-3-2-3-3-2-3-----------|

--0-0-0-0-3--0-0-----------|--2-3-3-2-3-3-2-3-----------|

 

 

S S S S S S S E. S E E S Q S E S H

---------------------------------|-------------------------|

---------------------------------|-------------------------|

---------------------------------|-------------------------|

--3-5-5-5-5-5-3-5----5-5--5----3-|--0----0-5----3-0--------|

--3-5-5-5-5-5-3-5----5-5--5----3-|--0----0-5----3-0--------|

--3-5-5-5-5-5-3-5~---5-5--5br--3-|--0----0-5br--3-0--------|

 

 

Verse

H. Q W W

--------------------|-------------------|-------------------|

--------------------|-------------------|-------------------|

--------------------|-------------------|-------------------|

--0------------2----|--3----------------|--5----------------|

--0------------2----|--3----------------|--5----------------|

--0------------2----|--3----------------|--5----------------|

 

 

W H. Q W

-------------------|--------------------|-------------------|

-------------------|--------------------|-------------------|

-------------------|--------------------|-------------------|

--0----------------|--0------------2----|--3----------------|

--0----------------|--0------------2----|--3----------------|

--0----------------|--0------------2----|--3----------------|

 

 

W S S S S E S S Q Q S S S S S S S S Q Q

-------------------|---------------------------|----------------------------|

-------------------|---------------------------|----------------------------|

-------------------|---------------------------|----------------------------|

--5----------------|--0-0-0-0-3--0-0-----------|--2-3-3-2-3-3-2-3-----------|

--5----------------|--0-0-0-0-3--0-0-----------|--2-3-3-2-3-3-2-3-----------|

--5----------------|--0-0-0-0-3--0-0-----------|--2-3-3-2-3-3-2-3-----------|

 

 

S S S S S S S E. S E E S Q S E S H

---------------------------------|-------------------------|

---------------------------------|-------------------------|

---------------------------------|-------------------------|

--3-5-5-5-5-5-3-5----5-5--5----3-|--0----0-5----3-0--------|

--3-5-5-5-5-5-3-5----5-5--5----3-|--0----0-5----3-0--------|

--3-5-5-5-5-5-3-5~---5-5--5br--3-|--0----0-5br--3-0--------|

 

 

S S S S E S S Q Q S S S S S S S S Q Q

---------------------------|----------------------------|

---------------------------|----------------------------|

---------------------------|----------------------------|

--0-0-0-0-3--0-0-----------|--2-3-3-2-3-3-2-3-----------|

--0-0-0-0-3--0-0-----------|--2-3-3-2-3-3-2-3-----------|

--0-0-0-0-3--0-0-----------|--2-3-3-2-3-3-2-3-----------|

 

 

S S S S S S S E. S E E S Q S E S H

---------------------------------|-------------------------|

---------------------------------|-------------------------|

---------------------------------|-------------------------|

--3-5-5-5-5-5-3-5----5-5--5----3-|--0----0-5----3-0--------|

--3-5-5-5-5-5-3-5----5-5--5----3-|--0----0-5----3-0--------|

--3-5-5-5-5-5-3-5~---5-5--5br--3-|--0----0-5br--3-0--------|

 

 

S S S S E S S Q Q S S S S S S S S Q Q

---------------------------|----------------------------|

---------------------------|----------------------------|

---------------------------|----------------------------|

--0-0-0-0-3--0-0-----------|--2-3-3-2-3-3-2-3-----------|

--0-0-0-0-3--0-0-----------|--2-3-3-2-3-3-2-3-----------|

--0-0-0-0-3--0-0-----------|--2-3-3-2-3-3-2-3-----------|

 

 

S S S S S S S E. S E E S Q S E S H

---------------------------------|-------------------------|

---------------------------------|-------------------------|

---------------------------------|-------------------------|

--3-5-5-5-5-5-3-5----5-5--5----3-|--0----0-5----3-0--------|

--3-5-5-5-5-5-3-5----5-5--5----3-|--0----0-5----3-0--------|

--3-5-5-5-5-5-3-5~---5-5--5br--3-|--0----0-5br--3-0--------|

 

 

H. Q W W

--------------------|-------------------|-------------------|

--------------------|-------------------|-------------------|

--------------------|-------------------|-------------------|

--0------------2----|--3----------------|--5----------------|

--0------------2----|--3----------------|--5----------------|

--0------------2----|--3----------------|--5----------------|

 

 

W H. Q W

-------------------|--------------------|-------------------|

-------------------|--------------------|-------------------|

-------------------|--------------------|-------------------|

--0----------------|--0------------2----|--3----------------|

--0----------------|--0------------2----|--3----------------|

--0----------------|--0------------2----|--3----------------|

 

 

Solo

W Q. H E S S S E. S S S S S E. S S

-------------------|----------------------|-----------------------------------|

-------------------|----------------------|-----------------------------------|

-------------------|----------------------|-----------------------------------|

--5----------------|--8------10--------x--|--3-----------------3-----5~-------|

--5----------------|--8------10--------x--|-------5-3-5~---3-5---5-3------3-5-|

--5----------------|--8------10--------x--|-----------------------------------|

 

 

S S S E. S S S S S S S E.

-----------------11-8--------------|

----------------------10-7---------|

---------------------------10-8~---|

--3--------------------------------|

----5-3-5~---3-5-------------------|

-----------------------------------|

 

 

S T T S S S S S S S T T S E S S S

--------------------------------------------------------|

--------------------------------15----15-17br--15----15-|

-----------------15----15-17-15----17-------------17----|

--17-15----15-17----17----------------------------------|

--------17----------------------------------------------|

--------------------------------------------------------|

 

 

S T T S S S S S S S T T S E E.

-----------------------------------------18b--20pb~---|

--------------------------------15-17-15--------------|

-----------------15----15-17-15-----------------------|

--17-15----15-17----17--------------------------------|

--------17--------------------------------------------|

------------------------------------------------------|

 

 

Verse

H. Q H E. E S E. E Q S

--20pb~------------20pb~----|--18~--------|---------------------------|

----------------------------|-------------|---------------------------|

----------------------------|-------------|---------------------------|

----------------------------|-------------|--0-----0----0---0---------|

----------------------------|-------------|--0-----0----0---0---------|

----------------------------|-------------|--0-----0----0---0---------|

 

 

E. E S E. E Q S E E E E E E S E.

-------------------------|---------------------------|

-------------------------|---------------------------|

-------------------------|---------------------------|

--0---0----0---0---------|--8--8--8--8--8--8--8p-3---|

--0---0----0---0---------|--8--8--8--8--8--8--8p-3---|

--0---0----0---0---------|--8--8--8--8--8--8--8p-3---|

 

 

PM

E E E E E E S E. S S S E. S S S S S S S E. E

-----------------------------------|--------------------------------|-----|

-----------------------------------|--------------------------------|-----|

-----------------------------------|--------------------------------|-----|

--10--10--10--10--10--10--10h-12---|--3--------------3--------------|--0--|

--10--10--10--10--10--10--10h-12---|----5-3-5~---3-5---5-3-0--------|--0--|

--10--10--10--10--10--10--10h-12---|-------------------------5-3~---|--0--|

 

 

<

W H. Q W

-----|-----|-----|-------------------|--------------------|-------------------|

-----|-----|-----|-------------------|--------------------|-------------------|

-----|-----|-----|-------------------|--------------------|-------------------|

-----|-----|-----|--0----------------|--0------------2----|--3----------------|

-----|-----|-----|--0----------------|--0------------2----|--3----------------|

-----|-----|-----|--0----------------|--0------------2----|--3----------------|

 

 

W W H. Q

-------------------|-------------------|--------------------|

-------------------|-------------------|--------------------|

-------------------|-------------------|--------------------|

--5----------------|--0----------------|--0------------2----|

--5----------------|--0----------------|--0------------2----|

--5----------------|--0----------------|--0------------2----|

 

 

W W Q. H E

-------------------|-------------------|----------------------|

-------------------|-------------------|----------------------|

-------------------|-------------------|----------------------|

--3----------------|--5----------------|--8------10--------x--|

--3----------------|--5----------------|--8------10--------x--|

--3----------------|--5----------------|--8------10--------x--|

 

 

Outro

S S S E. S S S S S E. S S S S S E. S S S S S S S E.

------------------------------------|--------------------------------|

------------------------------------|--------------------------------|

------------------------------------|--------------------------------|

--3------------------3-----5~-------|--3--------------3--------------|

--------5-3-5~---3-5---5-3------3-5-|----5-3-5~---3-5---5-3-0--------|

------------------------------------|-------------------------5-3~---|

 

 

S S S E. S S S S S E. S S

-------------------------------13~---------|

--15-12----12------12-15-12-------------12-|

--------15------15----------15-------15----|

-------------------------------------------|

-------------------------------------------|

-------------------------------------------|

 

 

S S S E. S S S S S S S E.

--------------------------------------------||

--15-12----12~------12-15-12----------------||

--------15-------15----------15-12----------||

-----------------------------------17-15~---||

--------------------------------------------||

--------------------------------------------||

 

 

 

 

Duration Legend

---------------

W - whole

H - half

Q - quarter

E - 8th

S - 16th

T - 32nd

X - 64th

. - note dotted

|-n-| - n-tuplets

 

 

Tablature Legend

----------------

L - tied note

x - dead note

g - grace note

(n) - ghost note

> - accentuded note

NH - natural harmonic

AH - artificial harmonic

TH - tapped harmonic

SH - semi harmonic

PH - pitch harmonic

h - hammer on

p - pull off

b - bend

br - bendRelease

pb - preBend

pbr - preBendRelease

brb - bendReleaseBend

\n/ - tremolo bar dip

\n - tremolo bar dive

-/n - tremolo bar Release up

/n\ - tremolo bar inverted dip

/n - tremolo bar return

-\n - tremolo bar Release down

S - shift slide

s - legato slide

/ - slide into from below or out of upwards

\ - slide into from above or out of downwards

~ - vibrato

W - wide vibrato

tr - trill

TP - tremolo picking

T - tapping

S - slap

P - pop

< - fade in

^ - brush up

v - brush down

Return to my 3 Doors Down Guitar Tabs page

The Tablature is Copyright its respective owners.

Sign Up For My Newsletter
Subscribe | Unsubscribe

Site Map | Disclaimer | Privacy Policy | Media Kit | Submissions/Corrections

Website © 2000-2014 mattsmusicpage.com. All rights reserved.

Legal & DMCA: Matt's Music Page has been providing lyrics and tabs in a legal way, paying royalties each year to a few organizations. Then, all lyrics and tabs were removed from the site. Now, there's a new owner to the site, which purchased it August 26, 2014, and he is in negotiation to obtain licensing from BMI at the moment. If you have a specific DMCA request -- please do not hesitate to contact me via the contact button on top. I will do my very best to keep this site fully legal.

Get our toolbar!