Your One-Stop Source For
Music Lyrics
Bass and Guitar Tabs
and More...
Music Lyrics Bass and Guitar Tabs

 

The Tabs Are Below

Learn To Read Tab
Chords Handbook
Corrections & Additions
Get Official Tab
3 Doors Down tabs @ 911Tabs

song: Ticket to Heaven

artist: 3 Doors Down

album: Away from the Sun

tabber:Adam (ninjaadam44@yahoo.com)

tuning: standard (EADGBe)

 

pre-intro intro* (intro tabbed in part by <lithium381@yahoo.com>)

e|---------|---------------------------------(3)-----(0)--------------|

B|---------|-----------3-0~-----0----------------(3)---------3-0~-----|

G|---------|----------------------------------------------------------|

D|--10-12--|-------2-2------2-2---5-2------5-------------2-2----------|

A|--10-12--|--------------------------3-3-----------------------------|

E|--8--10--|----------------------------------------------------------|

 

verse 1 (slight variation of intro)

e|-------0-------------------||---------------------------------------|

B|-----3----3-0-3~-0~--3~0~--||-----3-0~-----0------------------------|

G|---------------------------||---------------------------------------|

D|-2-2-----------------------||2-2------2-2---5-2-----5~-----5~-------|

A|---------------------------||--------------------3-3----3-3---------|

E|---------------------------||---------------------------------------|

 

e|----------------0--------------------------------------------------||

B|-----3-0~-----3---3-0-----------------------3-0--3-0---------------||

G|-------------------------------------------------------------------||

D|-2-2------2-2-------------5~-----5~--12--10-----------10--12--x-x-x||

A|----------------------3-3----3-3-----12--10-----------10--12--x-x-x||

E|-------------------------------------10--8------------8---10--x-x-x||

 

chorus (heavily distorted)

e|--------------------------------------------------------------------|

B|--------------------------------------------------------------------|

G|--------------------------------------------------------------------|

D|---2--2--2-4-5-4--5-5/10-10--10-10-9-10-12-12~------2--2--2-4-5-4---|

A|---2--2--2-4-5-4--5-5/10-10--10-10-9-10-12-12~------2--2--2-4-5-4---|

E|---0--0--0-2-3-2--3-3/8--8---8--8--7-8--10-10~------0--0--0-2-3-2---|

 

verse 2

e|------------------------------||------------------------------------|

B|------------------------------||-----3-0~-----0---------------------|

G|------------------------------||------------------------------------|

D|--5-5/10-10-10---10-9--7-5~-5-||-2-2------2-2---5-2-----5~-----5~---|

A|--5-5/10-10-10---10-9--7-5~-5-||--------------------3-3----3-3------|

E|--3-3/8--8--8----8--7--5-3~-3-||------------------------------------|

 

e|--------------------------------------0-----------------------------|

B|-----3-0~-----0---------------3-----3---3---------3-0~-----3-3b5r3--|

G|--------------------------------------------------------------------|

D|-2-2------2-2---5b7r5-2-----5-----5-------5~--2-2------2-2----------|

A|------------------------3-3-----3-----------------------------------|

E|--------------------------------------------------------------------|

 

e|-------------3-3-3~-2~-3~---------0-0-0--0-0-0---------------------||

B|-0-------3~--3-3-3~-3~-3~--0-0----0h3-0--0h3-0---------------------||

G|---0-----0~----------------x-x-------------------------------------||

D|-------5-------------------2p0------------------10~--12~--x-x-x----||

A|-----3------------------------------------------10~--12~--x-x-x----||

E|------------------------------------------------8-~--10~--x-x-x----||

 

bridge (2:08) guitar 1 (distortion and wah)

e|--------------------------------------------------------------------|

B|--9b12---r9-8--11/12-11--11--11-x-11-x-11-x-11/12-11-12-14~--14p12--|}

G|--------------------------------------------------------------------|}1

D|--------------------------------------------------------------------|}

A|--------------------------------------------------------------------|}

E|--------------------------------------------------------------------|}

guitar 2 (distortion) }

e|--------------------------------------------------------------------|}

B|--------------------------------------------------------------------|}

G|--------------------------------------------------------------------|}2

D|----14~---12--10~------------------------------------14~---12--10~--|}

A|----14~---12--10~------------------------------------14~---12--10~--|}

E|----12~---10--8-~------------------------------------12~---10--8-~--|

 

(guitar 1 continued)

e|-------------------------------------------------------------------||

B|-11-11b12r11-11---11b13r11-10-9--------------------12-12-12p11-11~-||}

G|-------------------------------------------------------------------||}

D|-------------------------------------------------------------------||}1

A|-------------------------------------------------------------------||}

E|-------------------------------------------------------------------||}

(guitar 2 continued) }

e|-------------------------------------------------------------------||}

B|-------------------------------------------------------------------||}

G|-------------------------------------------------------------------||}2

D|-------------------------------10101010-10101010-12~---------------||}

A|-------------------------------10101010-10101010-12~---------------||}

E|-------------------------------8-8-8-8--8-8-8-8--10~---------------||

 

outro (3:01)

e|-------------------------------------------------------------------||

B|-------------------------------------------------------------------||

G|-------------------------------------------------------------------||

D|--12~--10~--9~---5~-2~~~~~~----------------------------------------||

A|--12~--10~--9~---5~-2~~~~~~----------------------------------------||

E|--10~--8-~--7~---3~-0~~~~~~----------------------------------------||

 

____________________________________________

|symbols: |

order: | / - slide |

|() - played softly |

pre-intro | x - muted note |

intro |xbz- bend from note x to note z |

verse 1 | r - release bend |

chorus | h - hammer on |

verse 2 | p - pull off |

chorus | and, of course, |

bridge (2:08) | |

chorus | ~ - sustained note |

outro (3:01) |____________________________________________|

 

*i know that all of the D-5-'s would be easier as G-0-'s, but it sounds

closer to the album to me this way.

 

i know that the lead on the bridge is extremely bad, but i've had the

rest of this tabbed for over a week now, and thought i should go ahead

and submit it. if i get time with my amp and effects near my computer,

i'll fix it, if not, anyone else can feel free to. i think the rest of

the tab is pretty solid, though. this is one of the better songs on the

album, so i thought i'd give it a go. have fun with it.

 

questions, comments, and corrections can be sent to:

ninjaadam44@yahoo.com

 

Return to my 3 Doors Down tabs page

The Tablature is Copyright its respective owners.

Sign Up For My Newsletter
Subscribe | Unsubscribe

Site Map | Disclaimer | Privacy Policy | Media Kit | Submissions/Corrections

Website © 2000-2014 mattsmusicpage.com. All rights reserved.

Legal & DMCA: Matt's Music Page has been providing lyrics and tabs in a legal way, paying royalties each year to a few organizations. Then, all lyrics and tabs were removed from the site. Now, there's a new owner to the site, which purchased it August 26, 2014, and he is in negotiation to obtain licensing from BMI at the moment. If you have a specific DMCA request -- please do not hesitate to contact me via the contact button on top. I will do my very best to keep this site fully legal.

Get our toolbar!