Your One-Stop Source For
Music Lyrics
Bass and Guitar Tabs
and More...
Music Lyrics Bass and Guitar Tabs

 

The 3 Doors Down Guitar Tabs Are Below

Learn To Read Tab
Chords Handbook
Corrections & Additions
Get Official Tab
3 Doors Down tabs @ 911Tabs

The real life

3 Doors Down

Track number 6 from Seventeen days

Tabbed By: Mariano Arnaiz

Anything to : marianoarnaiz@hotmail.com

Tunning: standar

Here is the pìcking, chords and break downs put together for one guitar

NOTE: mUST OF THE PICKING ARE NOT PERFECT CAUSE THEY CHANGE A LOT BUT WHAT I TAB

CAN BE USE LIKE A GIDE, ANYWAY IF YOU DONT LIKE THEM JUST PICK RAMDOM AT THE CHORDS

 

Intro for acoustic guitar

Bm A G

e|---------------------|--------------------|--------------------------|

B|----------3-3--------|---------3--2-------|--------3---2/3-----3-3---|

G|--------------4---4--|---------------2----|----------0-----0----0-0--|

D|-------4x-------4----|-----2x----------2--|------------------0-------|

A|--2x-----------------|--0-----------------|----2---------------------|

E|---------------------|--------------------|--3----------3------------|

Bm A G

e|---------------------|---------------------|--------------------------|

B|----------3-3--------|---------5/7-7--3-3--|--------3---2/3-----3-3---|

G|--------------4---4--|-----------------2-2-|----------0-----0----0-0--|

D|-------4x-------4----|-----2x--------------|------------------0-------|

A|--2x-----------------|--0------------------|----2---------------------|

E|---------------------|---------------------|--3----------3------------|

 

Bass, drums and 2nd guitar enter here (1st and 2nd guitar mixted up)

(if you dont like this play the acoustic part againg)

Bm A G

e|---------------------|-----------------|--------------------------|

B|----------3-3--------|--------------3--|--------3---2/3-----3-3---|

G|--------------4---4--|--2-/4-/7--2---2-|----------0-----0----0-0--|

D|-------4x-------4----|------------2----|------------------0-------|

A|--2x-----------------|-----------------|----2---------------------|

E|---------------------|-----------------|--3----------3------------|

Bm A G

e|-----------------|------------------------|------------------------------------|

B|----------3-3----|------------------------|--------3---2-3-2-3--3-3--2-2h3-2---|

G|--------------4--|---2-/4-/7--4./7--4/7-2-|----------0-----------0-0---------0-|

D|-------4x--------|------------------------|-------------------0----------------|

A|--2x-------------|------------------------|----2-------------------------------|

E|-----------------|------------------------|--3----------3----------------------|

 

 

Verse 1 (only for acoustic guitar)

Bm A G

I wanted to find somewhere to hide

Bm A G

and I opened up and let those fears inside

Bm A G

and I wanted to be anyone else

Bm A G

only to find that there was no one there but me

 

Bm A G

e|---------------------|--------------------|--------------------------|

B|----------3-3--------|---------3--2-------|--------3---2/3-----3-3---|

G|--------------4---4--|---------------2----|----------0-----0----0-0--|

D|-------4x-------4----|-----2x----------2--|------------------0-------|

A|--2x-----------------|--0-----------------|----2---------------------|

E|---------------------|--------------------|--3----------3------------|

Bm A G Play all of these twice

e|---------------------|--------------------|--------------------------|

B|----------3-3--------|---------2/3-2-3-3--|--------3---2/3-----3-3---|

G|--------------4---4--|----------------2-2-|----------0-----0----0-0--|

D|-------4x-------4----|-----2x-------------|------------------0-------|

A|--2x-----------------|--0-----------------|----2---------------------|

E|---------------------|--------------------|--3----------3------------|

 

No break down here just go tho the chorus

 

Chorus (is not necesary to play the mute the notes , i just put them there istead of the PM)

 

B5 A5 G5 B5

e|--x-x------------|--x-x--0--0-0-0--|--x-x------------------|--x-x------------|

B|--x-x-(3)--------|--x-x--0--0-2-0--|--x-x------------------|--x-x-(3)--------|

G|--x-x--4--4-4-4--|--x-x--2--2-2-2--|--x-x--4---------------|--x-x--4--4-4-4--|

D|--x-x--4--4-4-4--|--x-x--2--2-2-2--|--x-x--5--5-5-5--------|--x-x--4--4-4-4--|

A|--x-x--2--2-2-2--|--x-x--0--0-0-0--|--x-x--5--5-5-5--4/5-5-|--x-x--2--2-2-2--|

E|--x-x------------|--x-x--x---------|--x-x--3--3-3-3--2/3-3-|--x-x------------|

But I woke up to the real life and I realized

A5 G5 B5 A5

e|--x-x--0--0-0-0--|--x-x--------------------|--x-x------------|--x-x--0--0-0-0--|

B|--x-x--0--0-2-0--|--x-x--------------------|--x-x-(3)--------|--x-x--0--0-2-0--|

G|--x-x--2--2-2-2--|--x-x--4-----------------|--x-x--4--4-4-4--|--x-x--2--2-2-2--|

D|--x-x--2--2-2-2--|--x-x--5--5-5------------|--x-x--4--4-4-4--|--x-x--2--2-2-2--|

A|--x-x--0--0-0-0--|--x-x--5--5-5-4/5--4-4/5-|--x-x--2--2-2-2--|--x-x--0--0-0-0--|

E|--x-x--x---------|--x-x--3--3-3-2/3--2-2/3-|--x-x------------|--x-x--x---------|

It's not worth running from anymore when there was nowhere left to

 

G5 B5 A5 G5

e|--x-x------------------|--x-x------------|--x-x--0--0-0-0--|--x-x--------------------|

B|--x-x------------------|--x-x-(3)--------|--x-x--0--0-2-0--|--x-x--------------------|

G|--x-x--4---------------|--x-x--4--4-4-4--|--x-x--2--2-2-2--|--x-x--4-----------------|

D|--x-x--5--5-5-5--------|--x-x--4--4-4-4--|--x-x--2--2-2-2--|--x-x--5--5-5----------0-|

A|--x-x--5--5-5-5--4/5-5-|--x-x--2--2-2-2--|--x-x--0--0-0-0--|--x-x--5--5-5---------2--|

E|--x-x--3--3-3-3--2/3-3-|--x-x------------|--x-x--x---------|--x-x--3--3-3--3-5-3-2---|

hide I found out that.. real.. but I won't stop now until I find a b-r p o me

 

(b-r p o me = better part of me)

 

Pre- verse (no voice)(not exactly tabbed)

 

Bm A G

e|---------------------|----------------------|-----------------------------|

B|----------3-3--------|----------------------|--------3---2/3-----3-2-3-2--|

G|--------------4---4--|---------4./7-4./7--2-|----------0-----0------------|

D|-------4x-------4----|-----2x---------------|------------------0----------|

A|--2x-----------------|--0-------------------|----2------------------------|

E|---------------------|----------------------|--3----------3---------------|

Bm A G

e|-----------------|------------------------|------------------------------------|

B|----------3-3----|------------------------|--------3---2-3-2-3--3-3--2-2h3-2---|

G|--------------4--|---2-/4-/7--4./7--4/7-2-|----------0-----------0-0---------0-|

D|-------4x--------|------------------------|-------------------0----------------|

A|--2x-------------|------------------------|----2-------------------------------|

E|-----------------|------------------------|--3----------3----------------------|

 

 

 

 

Verse 2

Bm A G

I let those hard days get me down

Bm A G

and all the things I hate got in my way

Bm A G

I could've screamed without a sound

Bm A G

I found myself silenced by those things they say

 

Bm A G

e|---------------------|--------------------|--------------------------|

B|----------3-3--------|---------3--2-------|--------3---2/3-----3-3---|

G|--------------4---4--|---------------2----|----------0-----0----0-0--|

D|-------4x-------4----|-----2x----------2--|------------------0-------|

A|--2x-----------------|--0-----------------|----2---------------------|

E|---------------------|--------------------|--3----------3------------|

Bm A G Play all of these twice

e|---------------------|---------------------|--------------------------|

B|----------3-3--------|----------------3-3--|--------3---2/3-----3-3---|

G|--------------4---4--|-------2./4./7---2-2-|----------0-----0----0-0--|

D|-------4x-------4----|-----2x--------------|------------------0-------|

A|--2x-----------------|--0------------------|----2---------------------|

E|---------------------|---------------------|--3----------3------------|

 

 

Break down

 

e|------------|

B|------------|

G|------------|

D|------------|

A|--4/5\4--2--|

E|--2/3\2--0--|

 

 

Chorus (is not necesary to play the mute the notes , i just put them there istead of the PM)

 

B5 A5 G5 B5

e|--x-x------------|--x-x--0--0-0-0--|--x-x------------------|--x-x------------|

B|--x-x-(3)--------|--x-x--0--0-2-0--|--x-x------------------|--x-x-(3)--------|

G|--x-x--4--4-4-4--|--x-x--2--2-2-2--|--x-x--4---------------|--x-x--4--4-4-4--|

D|--x-x--4--4-4-4--|--x-x--2--2-2-2--|--x-x--5--5-5-5--------|--x-x--4--4-4-4--|

A|--x-x--2--2-2-2--|--x-x--0--0-0-0--|--x-x--5--5-5-5--4/5-5-|--x-x--2--2-2-2--|

E|--x-x------------|--x-x--x---------|--x-x--3--3-3-3--2/3-3-|--x-x------------|

But I woke up to the real life and I realized

A5 G5 B5 A5

e|--x-x--0--0-0-0--|--x-x--------------------|--x-x------------|--x-x--0--0-0-0--|

B|--x-x--0--0-2-0--|--x-x--------------------|--x-x-(3)--------|--x-x--0--0-2-0--|

G|--x-x--2--2-2-2--|--x-x--4-----------------|--x-x--4--4-4-4--|--x-x--2--2-2-2--|

D|--x-x--2--2-2-2--|--x-x--5--5-5------------|--x-x--4--4-4-4--|--x-x--2--2-2-2--|

A|--x-x--0--0-0-0--|--x-x--5--5-5-4/5--4-4/5-|--x-x--2--2-2-2--|--x-x--0--0-0-0--|

E|--x-x--x---------|--x-x--3--3-3-2/3--2-2/3-|--x-x------------|--x-x--x---------|

It's not worth running from anymore when there was nowhere left to

 

G5 B5 A5 G5

e|--x-x------------------|--x-x------------|--x-x--0--0-0-0--|--x-x--------------------|

B|--x-x------------------|--x-x-(3)--------|--x-x--0--0-2-0--|--x-x--------------------|

G|--x-x--4---------------|--x-x--4--4-4-4--|--x-x--2--2-2-2--|--x-x--4-----------------|

D|--x-x--5--5-5-5--------|--x-x--4--4-4-4--|--x-x--2--2-2-2--|--x-x--5--5-5----------0-|

A|--x-x--5--5-5-5--4/5-5-|--x-x--2--2-2-2--|--x-x--0--0-0-0--|--x-x--5--5-5---------2--|

E|--x-x--3--3-3-3--2/3-3-|--x-x------------|--x-x--x---------|--x-x--3--3-3--3-5-3-2---|

hide I found out that.. real.. but I won't stop now until I find a b-r p o me

 

(b-r p o me = better part of me)

 

Bridge (follow the voice, sorry too laizy to put the chords in the lyrics)

(Heavy part)

Thats out there somewhere

and It cant be that far away

thats where I'll find myself

and I'll find my way out

that's where I'll find out

 

e|--------------------------------|---------------------------|

B|--------------------------------|---------------------------|

G|--9---7-------------------------|--9--7--4------------------| Play twice

D|--9---7---9---------------------|--9--7--4------------------|

A|--7---5---9---------------------|--7--5--2---2/3-3-3-2(\0)--|

E|----------7---9/10-10-10-9(\7)--|---------------------------|

 

(Soft part)

Bm A G

e|---------------------|--------------------|--------------------------|

B|----------3-3--------|---------3--2-------|--------3---2/3-----3-3---|

G|--------------4---4--|---------------2----|----------0-----0----0-0--| Play twice

D|-------4x-------4----|-----2x----------2--|------------------0-------|

A|--2x-----------------|--0-----------------|----2---------------------|

E|---------------------|--------------------|--3----------3------------|

where I'll find out..................ohh.............

 

Break down

e|------------|

B|------------|

G|------------|

D|------------|

A|--4/5\4--2--|

E|--2/3\2--0--|

 

Chorus (is not necesary to play the mute the notes , i just put them there istead of the PM)

 

B5 A5 G5 B5

e|--x-x------------|--x-x--0--0-0-0--|--x-x------------------|--x-x------------|

B|--x-x-(3)--------|--x-x--0--0-2-0--|--x-x------------------|--x-x-(3)--------|

G|--x-x--4--4-4-4--|--x-x--2--2-2-2--|--x-x--4---------------|--x-x--4--4-4-4--|

D|--x-x--4--4-4-4--|--x-x--2--2-2-2--|--x-x--5--5-5-5--------|--x-x--4--4-4-4--|

A|--x-x--2--2-2-2--|--x-x--0--0-0-0--|--x-x--5--5-5-5--4/5-5-|--x-x--2--2-2-2--|

E|--x-x------------|--x-x--x---------|--x-x--3--3-3-3--2/3-3-|--x-x------------|

But I woke up to the real life and I realized

A5 G5 B5 A5

e|--x-x--0--0-0-0--|--x-x--------------------|--x-x------------|--x-x--0--0-0-0--|

B|--x-x--0--0-2-0--|--x-x--------------------|--x-x-(3)--------|--x-x--0--0-2-0--|

G|--x-x--2--2-2-2--|--x-x--4-----------------|--x-x--4--4-4-4--|--x-x--2--2-2-2--|

D|--x-x--2--2-2-2--|--x-x--5--5-5------------|--x-x--4--4-4-4--|--x-x--2--2-2-2--|

A|--x-x--0--0-0-0--|--x-x--5--5-5-4/5--4-4/5-|--x-x--2--2-2-2--|--x-x--0--0-0-0--|

E|--x-x--x---------|--x-x--3--3-3-2/3--2-2/3-|--x-x------------|--x-x--x---------|

It's not worth running from anymore when there was nowhere left to

 

G5 B5 A5 G5

e|--x-x------------------|--x-x------------|--x-x--0--0-0-0--|--x-x--------------------|

B|--x-x------------------|--x-x-(3)--------|--x-x--0--0-2-0--|--x-x--------------------|

G|--x-x--4---------------|--x-x--4--4-4-4--|--x-x--2--2-2-2--|--x-x--4-----------------|

D|--x-x--5--5-5-5--------|--x-x--4--4-4-4--|--x-x--2--2-2-2--|--x-x--5--5-5----------0-|

A|--x-x--5--5-5-5--4/5-5-|--x-x--2--2-2-2--|--x-x--0--0-0-0--|--x-x--5--5-5---------2--|

E|--x-x--3--3-3-3--2/3-3-|--x-x------------|--x-x--x---------|--x-x--3--3-3--3-5-3-2---|

hide I found out that.. real.. but I won't stop now until I find a b-r p o me

 

(b-r p o me = better part of me)

 

Outro

Bm A G

e|---------------------|--------------------|---------------------------|

B|----------3-3--------|---------3--2-------|--------3---2/3-----3-3-2--|

G|--------------4---4--|---------------2----|----------0-----0----0-0---| Play twice

D|-------4x-------4----|-----2x----------2--|------------------0--------|

A|--2x-----------------|--0-----------------|----2----------------------|

E|---------------------|--------------------|--3----------3-------------|

Return to my 3 Doors Down Guitar Tabs page

The Tablature is Copyright its respective owners.

Sign Up For My Newsletter
Subscribe | Unsubscribe

Site Map | Disclaimer | Privacy Policy | Media Kit | Submissions/Corrections

Website © 2000-2014 mattsmusicpage.com. All rights reserved.

Legal & DMCA: Matt's Music Page has been providing lyrics and tabs in a legal way, paying royalties each year to a few organizations. Then, all lyrics and tabs were removed from the site. Now, there's a new owner to the site, which purchased it August 26, 2014, and he is in negotiation to obtain licensing from BMI at the moment. If you have a specific DMCA request -- please do not hesitate to contact me via the contact button on top. I will do my very best to keep this site fully legal.

Get our toolbar!