Your One-Stop Source For
Music Lyrics
Bass and Guitar Tabs
and More...
Music Lyrics Bass and Guitar Tabs

 

The Tabs Are Below

Learn To Read Tab
Chords Handbook
Corrections & Additions
Get Official Tab
3 Doors Down tabs @ 911Tabs

3 Doors Down

“Loser”

 

Guitar 1 Intro

E----0---------0--------------------------------------------

B-----0-0-------3-3-----------------------------------------

G--3---3-----2---2----X4------------------------------------

D-4-4-------0-0---------------------------------------------

A-----------------------------------------------------------

E-----------------------------------------------------------

 

Guitar 2 w/ volume swells

E-2----------0----------------------------------------------

B-2----------3----------------------------------------------

G-3----------2----------------------------------------------

D-4----------0----------------------------------------------

A-----------------------------------------------------------

E-----------------------------------------------------------

 

Guitar 1 Verse

E-2-2-2-2-x-x--------2-2-2-2-x-x-----------2-2-2-2-x--------

B-2-2-2-2-x-x---7----2-2-2-2-x-x--7--------2-2-2-2-x--------

G-3-3-3-3-x-x---7----3-3-3-3-x-x--7--------3-3-3-3-x--------

D-4-4-4-4-x-x---7----4-4-4-4-x-x--7--------4-4-4-4-x--------

A-4-4-4-4-x-x---5----4-4-4-4-x-x--5--------4-4-4-4-x--------

E-2-2-2-2-x-x-----0--2-2-2-2-x-x----5h7-7--2-2-2-2-x--------

 

 

E------------2-2-2-2----------------------------------------

B-7--5---5---2-2-2-2--7-------------------------------------

G-7---7---7--3-3-3-3--7-------------------------------------

D-7----7---7-4-4-4-4--7-------X4----------------------------

A-5----------4-4-4-4--5-------------------------------------

E------------2-2-2-2----5h7---------------------------------

 

Chorus

E|----------------------------------------------------------

B|----------------------------------------------------------

G|----------------------------------------------------------

D|-2--2-2-----------------7----7-7-7--2--2-2-2-2-2----------

A|-2--2-2--4---4-x-x-4-x--5----5-5-5--2--2-2-2-2-2----------

E|-0--0-0--2---2-x-x-2-x--------------0--0-0-0-0-0----------

PM----------|

Repeat Verse

 

Repeat Chorus

 

Interlude

E-----------------------------------------------------------

B-----------------------------------------------------------

G----------------------------------------PM----|------------

D----2--5--4-------------------------------2--2--5--4-------

A-4--0--3--2--2--2--3--4------X3--Then--4--0--0--3--2--2----

E-2-----------0--0--1--2----------------2--------------0----

 

 

E-----------------------------------------------------------

B-----------------------------------------------------------

G-----------------------------------------------------------

D-----------------------------------------------------------

A-2--3--4---------------------------------------------------

E-0--1--2---------------------------------------------------

 

Solo

E-----------------------------------------------------------

B-----------------------------------------------------------

G-2h4-------2-2—2/4-4-4-6-6-6/7----7---7-7-7--7-7—7h9-------

D-----------------------------------------------------------

A-----------------------------------------------------------

E-----------------------------------------------------------

 

 

E-----------------------------------------------------------

B-----------------------------------------------------------

G-9-9-9-11-11----11-11-11-11-\\\\\\------13h14--13--11------

D-----------------------------------------------------------

A-----------------------------------------------------------

E-----------------------------------------------------------

 

 

E-----------------------------------------------------------

B-----------------------------------------------------------

G-11h13--11—9h11--9—7h9--7-6-6/7---6------------------------

D--------------------------------------/9---7--0---2h4------

A-----------------------------------------------------------

E-----------------------------------------------------------

 

 

 

 

 

 

 

 

E-----------------------------------------------------------

B-----------------------------------------------------------

G---------------------------2--1-1--2------2--2—2/4--4------

D-4-4—4p2-2—2h4----2h4--4-4---------------------------------

A-----------------------------------------------------------

E-----------------------------------------------------------

 

 

E-----------------------------------------------------------

B-----------------------------------------------------------

G-4-4-4/6-6---7-7-7-7-7-7-7-7-------------------------------

D-----------------------------------------------------------

A-----------------------------------------------------------

E-----------------------------------------------------------

 

That’s basically the whole song, you can find out the order for yourself

 

Return to my 3 Doors Down tabs page

The Tablature is Copyright its respective owners.

Sign Up For My Newsletter
Subscribe | Unsubscribe

Site Map | Disclaimer | Privacy Policy | Media Kit | Submissions/Corrections

Website © 2000-2014 mattsmusicpage.com. All rights reserved.

Legal & DMCA: Matt's Music Page has been providing lyrics and tabs in a legal way, paying royalties each year to a few organizations. Then, all lyrics and tabs were removed from the site. Now, there's a new owner to the site, which purchased it August 26, 2014, and he is in negotiation to obtain licensing from BMI at the moment. If you have a specific DMCA request -- please do not hesitate to contact me via the contact button on top. I will do my very best to keep this site fully legal.

Get our toolbar!