Your One-Stop Source For
Music Lyrics
Bass and Guitar Tabs
and More...
Music Lyrics Bass and Guitar Tabs

 

The 3 Doors Down Guitar Tabs Are Below

Learn To Read Tab
Chords Handbook
Corrections & Additions
Get Official Tab
3 Doors Down tabs @ 911Tabs

3 Doors Down - Live For Today

Tabbed By: umar3dddbz

Email: GREENSHOOTS@onetel.net

 

Tuning: Standard (E A D G B E)

 

 

 

Artist: 3 Doors Down

Song: Live For Today

 

E|--------------------------------|---------------|

B|--------------------------------|---------------|

G|--------------------------------|---------------|

D|-3-3-3-3-3/5-5\-3-5-3-5-3-5-3-5-|-2/3-3-3-3-5-0-|

A|-3-3-3-3-3/5-5\-3-5-3-5-3-5-3-5-|-2/3-3-3-3-5-0-|

E|--------------------------------|-2/3-3-3-3-5-0-|

 

E|-----------------------------------------|---------------|----------------------|

B|-----------------------------------------|---------------|----------------------|

G|-----------------------------------------|---------------|----------------------|

D|-9h10-10-10-10-10-10/12-12-12-12---------|-2/3-3-3-3-5-0-|-10--10-10-10-9-9---3-|

A|-9h10-10-10-10-10-10/12-12-12-12-3-5-3-0-|-2/3-3-3-3-5-0-|-10--10-10-10-9-9p0-3-|

E|-9h10-10-10-10-10-10/12-12-12-12-3-5-3-0-|-2/3-3-3-3-5-0-|-10--10-10-10-9-9p0-3-|

 

E|---------------|-----------------------------------------|---------------|

B|---------------|-----------------------------------------|---------------|

G|---------------|-----------------------------------------|---------------|

D|-2/3-3-3-3-5-0-|-9h10-10-10-10-10-10/12-12-12-12---------|-2/3-3-3-3-5-0-|

A|-2/3-3-3-3-5-0-|-9h10-10-10-10-10-10/12-12-12-12-3-5-3-0-|-2/3-3-3-3-5-0-|

E|-2/3-3-3-3-5-0-|-9h10-10-10-10-10-10/12-12-12-12-3-5-3-0-|-2/3-3-3-3-5-0-|

 

E|---------------------------|-----------|-----------|---------|--------------------|

B|---------------------------|-----------|-------1---|---------|---1----------------|

G|---------------------------|-------2---|-----3-----|-------2-|------0-------------|

D|-10--10-10-10-9-9---3-(3)\-|-----2-----|---3-------|-----2---|---------2-----0----|

A|-10--10-10-10-9-9p0-3-(3)\-|---0-------|-1---------|---0-----|-3----------1-----0-|

E|-10--10-10-10-9-9p0-3-(3)\-|-0---------|-----------|-0-------|--------------------|

 

E|-1~-|-0----|--------|-1-0-|----0---5-|-0---0-----|---0---|

B|-3~-|-3-1--|-1-1b-1-|-----|------6---|---6-------|-6---6-|

G|-2~-|-3----|--------|-----|-7--------|--------7--|-------|

D|----|------|--------|-----|----------|-----------|-------|

A|----|------|--------|-----|----------|-----------|-------|

E|----|------|--------|-----|----------|-----------|-------|

 

This is all i got more will be coming soon though.

Umar

Return to my 3 Doors Down Guitar Tabs page

The Tablature is Copyright its respective owners.

Sign Up For My Newsletter
Subscribe | Unsubscribe

Site Map | Disclaimer | Privacy Policy | Media Kit | Submissions/Corrections

Website © 2000-2014 mattsmusicpage.com. All rights reserved.

Legal & DMCA: Matt's Music Page has been providing lyrics and tabs in a legal way, paying royalties each year to a few organizations. Then, all lyrics and tabs were removed from the site. Now, there's a new owner to the site, which purchased it August 26, 2014, and he is in negotiation to obtain licensing from BMI at the moment. If you have a specific DMCA request -- please do not hesitate to contact me via the contact button on top. I will do my very best to keep this site fully legal.

Get our toolbar!