Your One-Stop Source For
Music Lyrics
Bass and Guitar Tabs
and More...
Music Lyrics Bass and Guitar Tabs

 

The Tabs Are Below

Learn To Read Tab
Chords Handbook
Corrections & Additions
Get Official Tab
3 Doors Down tabs @ 911Tabs

Title: Life of my own

Album: The Better Life

Transcribed by: Charlie Martin

Email: pinga_dulse@hotmail.com

 

This is 100% right, Iv'e seen the other tabs on this song and they're completely

wrong, I decided that I better step up and put the right tab in.

Any questions, e-mail me.

 

------------------------------------------------------------------------------

--------0---------------------------------------------------------------------

--------------------------------0--0------------------------------------------

-----2--------2--0--0--4--0--4--------4--2------------------------------------

-----------3------------------------------------------------------------------

-0----------------------------------------------------------------------------

Play This 12 Times--Intro/First Part of the Verse

 

------------------------3--------0--------------------------------------------

--------0------------------3--------2-----------------------------------------

------------------------------2-----------------------------------------------

-----2--------2--0--0---------------------------------------------------------

-----------3------------------------------------------------------------------

-0----------------------------------------------------------------------------

Play This 4 Times--Second Part of the Verse

 

------------------------------------------------------------------------------

------------------------------------------------------------------------------

-----------------7-7-7-7-------------------------------7-7-7-7----------------

-2-2-2-2----5----7-7-7-7-------------2-2-2-2-----5-----7-7-7-7----------------

-2-2-2-2----5----5-5-5-5---7--5h7----2-2-2-2-----5-----5-5-5-5----------------

-0-0-0-0----3------------------------0-0-0-0-----3----------------------------

(Distortion) Slide Pick at First,If you listen you'll hear the "5h7" part

 

------------------------------------------------------------------------------

-3h5--5--5/7--7--7/8--8--8/10--10--10/12--12--12--12--12\10--10--10\8--8------

------------------------------------------------------------------------------

------------------------------------------------------------------------------

------------------------------------------------------------------------------

------------------------------------------------------------------------------

Solo I

 

-----------------------------------------------------------7------------------

-8\7--7--------------------7--7h8p7-------------------7h8-----10--8--7--------

---------9--9--9/11--7--9------------9--7--9/11--7h9--------------------------

------------------------------------------------------------------------------

------------------------------------------------------------------------------

------------------------------------------------------------------------------

Solo II

 

------------------------------------------------------------7-----------------

-------------------------------------------------------7-8-----10--8--7-------

---------------------------------------------------7h9------------------------

---------------7--9--7v------------------------7h9----------------------------

-----7--9--10------------10--9--7v------7--7h9--------------------------------

-10---------------------------------10----------------------------------------

Solo III

 

------------------------------------------------------------------------------

---------------------------------------------------------17v------------------

-9--7--9----------------------------------------------------------------------

------------9-7-9-9-11-11-11-11-12-12-12-14-14-16-17-17-----------------------

------------7-5-7-7-9--9--9--9--10-10-10-12-12-14-15-19-----------------------

------------------------------------------------------------------------------

Solo IV

 

 

Return to my 3 Doors Down tabs page

The Tablature is Copyright its respective owners.

Sign Up For My Newsletter
Subscribe | Unsubscribe

Site Map | Disclaimer | Privacy Policy | Media Kit | Submissions/Corrections

Website © 2000-2014 mattsmusicpage.com. All rights reserved.

Legal & DMCA: Matt's Music Page has been providing lyrics and tabs in a legal way, paying royalties each year to a few organizations. Then, all lyrics and tabs were removed from the site. Now, there's a new owner to the site, which purchased it August 26, 2014, and he is in negotiation to obtain licensing from BMI at the moment. If you have a specific DMCA request -- please do not hesitate to contact me via the contact button on top. I will do my very best to keep this site fully legal.

Get our toolbar!