Your One-Stop Source For
Music Lyrics
Bass and Guitar Tabs
and More...
Music Lyrics Bass and Guitar Tabs

 

The Tabs Are Below

Learn To Read Tab
Chords Handbook
Corrections & Additions
Get Official Tab
3 Doors Down tabs @ 911Tabs

This is the tab for the new 3 doors down song...i listened to it live and tabbed it but i'm pretty sure its right.

This is my first tab. - Gus Hutcherson

 

[Intro & Verse]

 

E]--------------------------------------

B]--------------------------------------

G]--4h6-6-6----4-4-4----2-2-2---4-4-4---

D]--4h6-6-6----4-4-4----2-2-2---4-4-4---

A]--4-4-4-4----2-2-2----0-0-0---2-2-2---

D]--------------------------------------

 

Repeat as much as necessary

 

 

[Chorus]

 

E]------------------------------------

B]------------------------------------

G]--6-6-6----4-4-4----2-2-2---4-4-4---

D]--6-6-6----4-4-4----2-2-2---4-4-4---

A]--4-4-4----2-2-2----0-0-0---2-2-2---

D]------------------------------------

 

Distort the chorus

 

 

 

That's about it...i'll update this later after i can listen to it more carefully on cd...thanks- Gus

[Verse 2]

 

E]--------------------------------------

B]--------------------------------------

G]--4h6-6-6----4-4-4----2-2-2---4-4-4---

D]--4h6-6-6----4-4-4----2-2-2---4-4-4---

A]--4-4-4-4----2-2-2----0-0-0---2-2-2---

D]--------------------------------------

 

 

[Chorus]

 

E]------------------------------------

B]------------------------------------

G]--6-6-6----4-4-4----2-2-2---4-4-4---

D]--6-6-6----4-4-4----2-2-2---4-4-4---

A]--4-4-4----2-2-2----0-0-0---2-2-2---

D]------------------------------------

 

Distort

 

 

Return to my 3 Doors Down tabs page

The Tablature is Copyright its respective owners.

Sign Up For My Newsletter
Subscribe | Unsubscribe

Site Map | Disclaimer | Privacy Policy | Media Kit | Submissions/Corrections

Website © 2000-2014 mattsmusicpage.com. All rights reserved.

Legal & DMCA: Matt's Music Page has been providing lyrics and tabs in a legal way, paying royalties each year to a few organizations. Then, all lyrics and tabs were removed from the site. Now, there's a new owner to the site, which purchased it August 26, 2014, and he is in negotiation to obtain licensing from BMI at the moment. If you have a specific DMCA request -- please do not hesitate to contact me via the contact button on top. I will do my very best to keep this site fully legal.

Get our toolbar!