Your One-Stop Source For
Music Lyrics
Bass and Guitar Tabs
and More...
Music Lyrics Bass and Guitar Tabs

 

The Tabs Are Below

Learn To Read Tab
Chords Handbook
Corrections & Additions
Get Official Tab
3 Doors Down tabs @ 911Tabs

3 Doors Down

Kryptonite

___________

tabbed by: method2gether

method2gether@hotmail.com

 

 

intro/verse - Distortion on

 

repeat 5 times last with sec 2 | Sec 1 of intro/verse |

e|------------------------------------------------------------------------------|

B|--------------3-----------------------------------------------------------0---|

G|----------4--------4---------0--------------------0-----------------2---------|

D|------4-----------------4-------------------0-----------------2---------------|

A|---2-----------------------------------2----------------0---------------------|

E|----------------------------------3-------------------------------------------|

(sec 2 of intro/verse)

-----------0---------------|

-----------------2---------|

-----------------------2---|

---------------------------|

-----0---------------------|

---------------------------|

 

repeat verse 3 times, last with sec 2

 

 

Repeat 2x

 

 

Guitar 1 - Clean

 

e|---2--2--x--x--2--2--x--x--3--3--x--x--0--0--x--x---|

B|---3--3--x--x--3--3--x--x--3--3--x--x--0--0--x--x---|

G|---4--4--x--x--4--4--x--x--0--0--x--x--2--2--x--x---|

D|---4--4--x--x--4--4--x--x--0--0--x--x--2--2--x--x---|

A|---2--2--x--x--2--2--x--x--2--2--x--x--0--0--x--x---|

E|---2--2--x--x--2--2--x--x--3--3--x--x--0--0--x--x---|

 

repeat verse 3 times, all with sec 2

 

Chorus (play 2 times)

 

e|-----------------------------------------------|

B|-----------------------------------------------|

G|---4-x-x-4-x-x-4-x-x-4-x-x-4---------2-x-x-2---|

D|---4-x-x-4-x-x-4-x-x-4-x-x-4-5-x-x-5-2-x-x-2---|

A|---2-x-x-2-x-x-2-x-x-2-x-x-2-5-x-x-5-0-x-x-0---|

E|-----------------------------3-x-x-3-----------|

 

e|-----------------------------------------------|

B|-----------------------------------------------|

G|---4-x-x-4-x-x-4-x-x-4-x-x-4-------------------|

D|---4-x-x-4-x-x-4-x-x-4-x-x-4-2-x-x-2-4-x-x-4---|

A|---2-x-x-2-x-x-2-x-x-2-x-x-2-2-x-x-2-4-x-x-4---|

E|-----------------------------0-x-x-0-4-x-x-4---|

 

repeat verse

repeat verse 2 times, with sec 2

repeat chorus

 

Solo Repeat 2x - distortion on

(little pick scraping then:)

e|---------------------------------------------------|

B|---------------------------------------------------|

G|---------------------------------------------------|

D|---------------------------------------------------|

A|---2---4---5---4---5---4---7---5---4---5---4---5---|

E|---------------------------------------------------|

 

e|------------------------------------------------|

B|------------------------------------------------|

G|------------------------------------------------|

D|------------------------------------------------|

A|---2---0---2---0---2---0------------------------|

E|---------------------------000--0000--222--2222-|

\_____palm muted____/

 

*chorus 2* Repeat 2 times (no distortion)

 

e|---------------2--------------------------3---------------------0-------------|

B|-------------------3-------3-------------------3--------------------2---------|

G|----------4------------4-----------------------------------2------------------|

D|-------4----------------------------------------------2-----------------------|

A|---2---------------------------------2----------------------------------------|

E|--------------------------------3---------------------------------------------|

 

repeat chorus 2 five times.

repeat chorus

repeat solo 2 times

 

Return to my 3 Doors Down tabs page

The Tablature is Copyright its respective owners.

Sign Up For My Newsletter
Subscribe | Unsubscribe

Site Map | Disclaimer | Privacy Policy | Media Kit | Submissions/Corrections

Website © 2000-2014 mattsmusicpage.com. All rights reserved.

Legal & DMCA: Matt's Music Page has been providing lyrics and tabs in a legal way, paying royalties each year to a few organizations. Then, all lyrics and tabs were removed from the site. Now, there's a new owner to the site, which purchased it August 26, 2014, and he is in negotiation to obtain licensing from BMI at the moment. If you have a specific DMCA request -- please do not hesitate to contact me via the contact button on top. I will do my very best to keep this site fully legal.

Get our toolbar!