Your One-Stop Source For
Music Lyrics
Bass and Guitar Tabs
and More...
Music Lyrics Bass and Guitar Tabs

 

The Tabs Are Below

Learn To Read Tab
Chords Handbook
Corrections & Additions
Get Official Tab
3 Doors Down tabs @ 911Tabs

3 Doors Down

Duck and Run

 

This is the way that I play it, and it sounds right, or at least pretty close.

I only tabbed this because the other tabs aren't completely correct, but I'm sure mine isn't either.

Intro

|---------------------------------------------------------------------------------

|---------------------------------------------------------------------------------

|9-99999-12-12-12-11-9-5-55555-4-4-44-55-7--9-99999-12-12-12-11-11-14-5-55555-4-4-

|-xxxxxxxxxxxxxxxxxxxxxxxxxxxxxxxxxxxxxxxxxxxxxxxxxxxxxxxxxxxxxxxxxxxxxxxxxxxxxxxx

|7-77777-10-10-10-9--7-3-33333-2-2-22-33-5--7-77777-10-10-10-9--9--12-3-33333-2-2-

|----------------------------------------------------------------------------------

 

|---------|

|--------*|

|44-55-7--|

|xxxxxxx--|

|22-33-5-*|

|---------|

 

And then this (Palm mute the open E's)

|------------------------------------------|

|------------------------------------------|

|------------------------------------------|

|------------------------------------------| X2

|-5h7--7p5-3-2-2h3-5----5h7--7p5-3-2-2h3p2-|

|----00---0---0------------00---0---0------|

pm . . .. . .

Verse

|------------------------------------------|

|------------------------------------------|

|------------------------------------------|

|------------------------------------------| X6

|-5h7--7p5-3-2-2h3-5----5h7--7p5-3-2-2h3p2-|

|----00---0---0------------00---0---0------|

pm....................................

 

Chorus

|---------------------------------------------------------------------------------

|---------------------------------------------------------------------------------

|---------------------------------------------------------------------------------

|9-99999-12-12-12-11-9-5-55555-4-4-44-55-7--9-99999-12-12-12-11-11-14-5-55555-4-4-

|7-77777-10-10-10-9--7-3-33333-2-2-22-33-5--7-77777-10-10-10-9--9--12-3-33333-2-2-

|---------------------------------------------------------------------------------

 

|---------|

|--------*|

|---------|

|44-55-7--|

|22-33-5-*|

|---------|

 

Post-Chorus

 

|---------------| |---------------| |--------------| |-----------|

|---------------| |---------------| |--------------| |-----------|

|---------------| |---------------| |--------------| |-----------|

|-9--4-5-2-4-5--| |-9--4-5-2------| |-9-4-5-2-4-5--| |-9-4-5-5555|

|-7--2-3-0-2-3--| |-7--2-3-0-2h3p2| |-7-2-3-0-2-3--| |-7-2-3-3333|

|---------------| |---------------| |--------------| |-----------|

 

Solo

|------------------------------------------------------------------|

|------------------------------------------------------------------|

|------12-11-12p11---------12-11-12p11-14-12---12-11-12p11---------|

|-14---------------12-14-----------------------------------12-14---| X2

|------------------------------------------------------------------|

|------------------------------------------------------------------|

 

Second time, he bends the held out notes, listen to the song for timing on all of it, I am only missing the bridge, the outro is just Verse X2 and then Chorus X4 and then Post Chorus X1

 

Return to my 3 Doors Down tabs page

The Tablature is Copyright its respective owners.

Sign Up For My Newsletter
Subscribe | Unsubscribe

Site Map | Disclaimer | Privacy Policy | Media Kit | Submissions/Corrections

Website © 2000-2014 mattsmusicpage.com. All rights reserved.

Legal & DMCA: Matt's Music Page has been providing lyrics and tabs in a legal way, paying royalties each year to a few organizations. Then, all lyrics and tabs were removed from the site. Now, there's a new owner to the site, which purchased it August 26, 2014, and he is in negotiation to obtain licensing from BMI at the moment. If you have a specific DMCA request -- please do not hesitate to contact me via the contact button on top. I will do my very best to keep this site fully legal.

Get our toolbar!