Your One-Stop Source For
Music Lyrics
Bass and Guitar Tabs
and More...
Music Lyrics Bass and Guitar Tabs

 

The Tabs Are Below

Learn To Read Tab
Chords Handbook
Corrections & Additions
Get Official Tab
3 Doors Down tabs @ 911Tabs

3 Doors Down - Changes

 

it's my first tab, It's certainly not perfect but

if you have any corrections or comments email me on:

deathmomo2001@yahoo.fr

 

 

Standard tuning (E-A-D-G-B-e)

 

d:down

u:up

 

 

intro: repeat 3 times

 

guitar 1:clean

 

e------------------------------------------------------------------------------

B------10--6----------------------10--6---------8--10--11--8--10---------------

G-------------7--12----------------------7--12---------------------------------

D---0----------------10--8--7--0-----------------------------------------------

A------------------------------------------------------------------------------

E------------------------------------------------------------------------------

 

e------------------------------------------------------------------------------

B------10--6-------------------------------------------------------------------

G-------------7--12------------------------------------------------------------

D---0----------------10--8--------3--------2-----------------------------------

A------------------------------3--------2--------------------------------------

E---------------------------1--------0-----------------------------------------

 

verse 1: repeat 2 times

 

guitar 1:clean

 

e-----5--5--5--5-----5--5--5--5------------------------------------------------

B-----5--5--5--5-----6--6--6--6------------------------------------------------

G-----7--7--7--7-----7--7--7--7------------------------------------------------

D--7--------------7------------------------------------------------------------

A--5--------------5------------------------------------------------------------

E--5--------------5------------------------------------------------------------

d d u d u d d u u u

 

verse 2

 

guitar 1:use a good heavy distortion

 

muted

 

e--5--5--5--5------------------------------------------------------------------

B--5--5--5--5------------------------------------------------------------------

G--7--7--7--7------------------------------------------------------------------

D--7--7--7--7------------------------------------------------------------------

A--5--5--5--5------------------------------------------------------------------

E--5--5--5--5------------------------------------------------------------------

d u d u

 

Chorus 1: heavy distortion (repeat 4 times)

 

e--3--5--5--6--5--3--5--3--5--5--5--5--5---------------------------------------

B--3--5--5--6--5--3--5--3--5--5--5--5--5---------------------------------------

G--5--7--5--6--5--5--5--5--5--7--7--7--7---------------------------------------

D--5--7--7--8--7--5--7--5--7--7--7--7--7---------------------------------------

A--3--5--7--8--7--3--7--3--7--5--5--5--5---------------------------------------

E--3--5--5--6--5--3--5--3--5--5--5--5--5---------------------------------------

d (for all)

 

intro: repeat 3 times

 

verse 1: repeat 2 times

 

verse 2

 

Chorus 1:(repeat 4 times)

 

verse 3:

 

e--5--5--5--3--3-----3--3--3--5--5-----5--5--5--3--3--------------------------

B--5--5--5--3--3-----3--3--3--5--5-----5--5--5--3--3--------------------------

G--7--7--7--5--5-----5--5--5--7--7-----7--7--7--5--5--------------------------

D--7--7--7--5--5-----5--5--5--7--7-----7--7--7--5--5--------------------------

A--5--5--5--3--3-----3--3--3--5--5-----5--5--5--3--3--------------------------

E--5--5--5--3--3-----3--3--3--5--5-----5--5--5--3--3--------------------------

d u d d d d u d d d d u d d d

 

 

e--6--3--5--5----6--3--5--5----3---5---3--------------------------------------

B--6--3--5--5----6--3--5--5----3---5---3--------------------------------------

G--6--5--7--7----8--5--7--7----5---7---5--------------------------------------

D--8--5--7--7----8--5--7--7----5---7---5--------------------------------------

A--8--3--5--5----6--3--5--5----3---5---3--------------------------------------

E--6--3--5--5----6--3--5--5----3---5---3--------------------------------------

d d d d d d d d

 

 

verse 2

 

Chorus 1: heavy distortion (repeat (I THINK 10) times)

 

outro:

 

e--5--5--5--3--3-----3--3--3--5--5-----5--5--5--3--3--------------------------

B--5--5--5--3--3-----3--3--3--5--5-----5--5--5--3--3--------------------------

G--7--7--7--5--5-----5--5--5--7--7-----7--7--7--5--5--------------------------

D--7--7--7--5--5-----5--5--5--7--7-----7--7--7--5--5--------------------------

A--5--5--5--3--3-----3--3--3--5--5-----5--5--5--3--3--------------------------

E--5--5--5--3--3-----3--3--3--5--5-----5--5--5--3--3--------------------------

d u d d d d u d d d d u d d d

 

end

 

Return to my 3 Doors Down tabs page

The Tablature is Copyright its respective owners.

Get our toolbar!