Your One-Stop Source For
Music Lyrics
Bass and Guitar Tabs
and More...
Music Lyrics Bass and Guitar Tabs

 

The Tabs Are Below

Learn To Read Tab
Chords Handbook
Corrections & Additions
Get Official Tab
3 Doors Down tabs @ 911Tabs

Artist : 3 Doors Down

Song : By My Side

Tuning : Standard (E A D G B E)

Tab : Mike Eheler (mikeeheler@hotmail.com)

--------------------------------------------------------------------------

 

RIFF A

e:-----------------:-----------------:-----------------:-----------------:

b:-----------------:-----------------:-----------------:-----------------:

g:-----------------:-3-3-------------:-----------------:-3-3-------0-----:

d:-5-5-------------:-3-3---3---0-030-:-5-5-------------:-3-3---3---------:

a:-5-5---6---5-565-:-1-1-------------:-5-5---6---5-565-:-1-1-------------:

e:-3-3-------------:-----------------:-3-3-------------:-----------------:

 

 

RIFF B

e:-----------------:-----------------:

b:-----------------:-----------------:

g:-------8-8-8-8-8-:-------1010101010:

d:-5-5---8-8-8-8-8-:-8-8---1010101010:

a:-5-5---6-6-6-6-6-:-8-8---8-8-8-8-8-:

e:-3-3-------------:-6-6-------------:

 

 

RIFF C

e:-----------------:-----------------:-----------------:-----------------:

b:-----------------:-----------------:-----------------:-----------------:

g:-----------------:-----------------:-----------------:-----------------:

d:---------3-------:-----------5---5-:---------3-------:-----------5---5-:

a:-----3-5---6-5-3-:---3---5---5---5-:-----3-5---6-5-3-:---3-------5---5-:

e:---6-------------:-6---------3---3-:---6-------------:-6-----3---3---3-:

PM---| PM---------| PM---| PM---------|

 

 

PM means Palm Mute. The riffs are presented in order of appearance.

 

RIFF A is the intro riff. They play around with palm muting in different

parts of the riff throughout the song.

 

RIFF B is the verse/solo riff. RIFF A is also played during these times.

Listen to the song. You'll know the difference between the two. Also RIFF B

is palm muted sometimes.

 

RIFF C is the bridge riff.. very cool riff IMHO.

 

Any other time in this song when you're not sure what's going on, just play

the G D# A# F chords (RIFF B).

 

As for the solo.. Just play something.. don't matter what, no need to tab

something like that out.. be creative!

 

Enjoy!

 

Return to my 3 Doors Down tabs page

The Tablature is Copyright its respective owners.

Sign Up For My Newsletter
Subscribe | Unsubscribe

Site Map | Disclaimer | Privacy Policy | Media Kit | Submissions/Corrections

Website © 2000-2014 mattsmusicpage.com. All rights reserved.

Legal & DMCA: Matt's Music Page has been providing lyrics and tabs in a legal way, paying royalties each year to a few organizations. Then, all lyrics and tabs were removed from the site. Now, there's a new owner to the site, which purchased it August 26, 2014, and he is in negotiation to obtain licensing from BMI at the moment. If you have a specific DMCA request -- please do not hesitate to contact me via the contact button on top. I will do my very best to keep this site fully legal.

Get our toolbar!

 

VINTAGE SORRENTO MUSIC JEWELRY BOX
$45.0
VINTAGE SORRENTO MUSIC JEWELRY BOX picture


VINTAGE LACQUERED MUSIC BOX JAPAN
$25.99
VINTAGE LACQUERED MUSIC BOX JAPAN picture


Vintage Kehlsteinhaus Bavaria Germany Colorscope Cow Bell View Master Music Box
$8.99
Vintage Kehlsteinhaus Bavaria Germany Colorscope Cow Bell View Master Music Box picture


VINTAGE SCHMIDT Signed Collectible Musical Turning Clown
$9.99
VINTAGE  SCHMIDT Signed Collectible Musical Turning Clown picture


Vintage - Linen - Postcard - Stage - Radio City Music Hall - New York City
$3.75
Vintage - Linen - Postcard - Stage - Radio City Music Hall - New York City   picture