Your One-Stop Source For
Music Lyrics
Bass and Guitar Tabs
and More...
Music Lyrics Bass and Guitar Tabs

 

The Tabs Are Below

Learn To Read Tab
Chords Handbook
Corrections & Additions
Get Official Tab
3 Doors Down tabs @ 911Tabs

Artist: 3 Doors Down

Song: Ticket To Heaven

Album: Away From The Sun

 

Words by: 3 Doors Down

Music by: 3 Doors Down

 

Tabbed by: Joey Crawford

Standard Tuning: E A D G

 

4-E 2-D

3-A 1-G

 

Okay this is not complete tab, but it will be finished later. Sorry.

 

Intro:

 

G:----------: :

D:----------: :

A:--3---5---: :

E:-(8)-(10)-: Play 1x :

 

Verse:

 

G:-----------------: :

D:-----------------: :

A:--3/7--7-7--9--7-: :

E:-----------------: Play 2x :

 

G:--------------------------:

D:--------------------------:

A:--5--3-3--3--5--3-3--3--5-:

E:--------------------------:

 

Chorus: ( Not Sure )

 

G:-----------------: : :

D:-----------------: : :

A:--3/7--7-7--9--7-: : :

E:-----------------: Play 2x : ( Strum some notes more then posted ) :

 

G:--------------------------: :

D:--------------------------: :

A:--5--3-3--3--5--3-3--3--5-: :

E:--------------------------: ( Strum some notes more then posted ) :

 

Pre-chorus:

 

G:--------------------------:

D:--------------------------:

A:--------------------------:

E:--------------------------: ( Sorry, I do not know this part )

 

Bridge:

 

G:-----------------: :

D:-----------------: :

A:--3/7--7-7--9--7-: :

E:-----------------: Play 2x :

 

G:--------------------------:

D:--------------------------:

A:--5--3-3--3--5--3-3--3--5-:

E:--------------------------:

 

Other Riffs:

 

G:-------------------------------------------------------------:

D:-------------------------------------------------------------:

A:-(Do a slide here and now after some riff, you'll hear them)-:

E:-------------------------------------------------------------:

 

Order:

 

( Sorry, no order now. Yet the song will be finished soon )

 

 

Return to my 3 Doors Down bass tabs page

The Tablature is Copyright its respective owners.

Sign Up For My Newsletter
Subscribe | Unsubscribe

Site Map | Disclaimer | Privacy Policy | Media Kit | Submissions/Corrections

Website © 2000-2014 mattsmusicpage.com. All rights reserved.

Legal & DMCA: Matt's Music Page has been providing lyrics and tabs in a legal way, paying royalties each year to a few organizations. Then, all lyrics and tabs were removed from the site. Now, there's a new owner to the site, which purchased it August 26, 2014, and he is in negotiation to obtain licensing from BMI at the moment. If you have a specific DMCA request -- please do not hesitate to contact me via the contact button on top. I will do my very best to keep this site fully legal.

Get our toolbar!

 

BRAND NEW KEY OF C HOHNER MINI HARMONICA HARP KEYRING KEYCHAIN KEY RING CHAIN
$8.21
BRAND NEW KEY OF C HOHNER MINI HARMONICA HARP KEYRING KEYCHAIN KEY RING CHAIN picture


RISING SONS BAND *2X3 FRIDGE MAGNET* VOCALS GUITAR MANDOLIN DOBRO HARMONICA SONG
$3.99
RISING SONS BAND *2X3 FRIDGE MAGNET* VOCALS GUITAR MANDOLIN DOBRO HARMONICA SONG picture


Vtg Christmas Angel Baby Girl W Harmonica Boy W Book SET OF 2 W GOLD WINGS
$125.0
Vtg Christmas Angel Baby Girl W Harmonica Boy W Book SET OF 2 W GOLD WINGS  picture


Beautiful Hand Carved Jewelry Trinket Jewelry Box Harmonica Case Bone And Brass
$14.5
Beautiful Hand Carved Jewelry Trinket Jewelry Box Harmonica Case Bone And Brass picture


BRAND NEW* HOHNER BOB DYLAN SIGNATURE LIMITED EDITION HARMONICA COLLECTORS ITEM
$140.19
BRAND NEW* HOHNER BOB DYLAN SIGNATURE LIMITED EDITION HARMONICA COLLECTORS ITEM picture