Your One-Stop Source For
Music Lyrics
Bass and Guitar Tabs
and More...
Music Lyrics Bass and Guitar Tabs

 

The Tabs Are Below

Learn To Read Tab
Chords Handbook
Corrections & Additions
Get Official Tab
3 Doors Down tabs @ 911Tabs

So I Need You

3 Doors Down

 

tabbed by: Booga1(Member of the Bass Tab Archive Tabbing Army)

 

 

This may not be perfect, but all the notes are there and I'm almost positive

that the rhythms are right.

 

The only notation that I think I need to explain is....

 

( ) = note tied to previous measure.

 

 

Enjoy!

 

 

 

 

 

W W W Q. Q E E E Q Q E Q E E E E Q E E E Q Q E Q E

G|---|---|---|-------------|--------------|------------------|--------------|

D|---|---|---|-------------|------------0-|-(0)-0---0--2-0-2-|--------------|

A|-R-|-R-|-R-|-R--3--2-----|--------------|-------0----------|-3--3----3--2-|

E|---|---|---|---------3-2-|-0--0--0-0----|------------------|-------3------|

 

 

 

E E E Q E E E Q Q E Q E E Q Q E E E Q Q E Q E E E E Q E E E

G|------------------|--------------|-----------------|--------------|------------------|

D|------------------|------------0-|-(0)-0--0--2-0-2-|--------------|------------------|

A|-(2)-2-2-3--2-----|--------------|-----------------|-3--3----3--2-|-(2)-2-2-3--2-----|

E|--------------3-2-|-0--0--0-0----|-----------------|-------3------|--------------3-2-|

 

 

 

Q Q E E E E E E E E E E Q Q Q E E E E E E E Q E Q

G|---------------|------------------|---------------|-----------------|

D|-------------0-|-(0)-0-0-0-0-0-0--|---------------|------------0-0--|

A|---------------|------------------|-------------0-|-(0)-0-0-3-------|

E|-0--0--0-0-0---|------------------|-3--3--3-3-3---|-----------------|

 

 

 

Q Q E E E E E E E E E E Q Q Q E E E E E E E Q E Q

G|---------------|------------------|---------------|-----------------|

D|-2--2--2-2-2-0-|-(0)-0-0-0-0-0-0--|---------------|------------0-0--|

A|---------------|------------------|-------------0-|-(0)-0-0-3-------|

E|---------------|------------------|-3--3--3-3-3---|-----------------|

 

 

 

Q Q E Q E E E E E Q Q Q Q E Q E E E E E Q Q

G|--------------|-----------------|--------------|-----------------|

D|---------0--2-|-(2)-2-0---0--2--|---------0--2-|-(2)-2-0---------|

A|-3--3--3------|---------2-------|-3--3--3------|---------2-0-----|

E|--------------|-----------------|--------------|--------------3--|

 

 

 

Q Q E Q E E E E E Q Q E E E E E E E E E E E E E E Q

G|--------------|-----------------|-----------------|----------------|

D|---------0--2-|-(2)-2-0---0--2--|---------------0-|-0-0-0-0-0-0-0--|

A|-3--3--3------|---------2-------|-3-3-3-3-3-3-3---|----------------|

E|--------------|-----------------|-----------------|----------------|

 

 

 

Q Q E Q E E Q Q E E E Q Q E Q E E E E Q E E E

G|--------------|-----------------|--------------|------------------|

D|------------0-|-(0)-0--0--2-0-2-|--------------|------------------|

A|--------------|-----------------|-3--3----3--2-|-(2)-2-2-3--2-----|

E|-0--0--0-0----|-----------------|-------3------|--------------3-2-|

 

 

 

Q Q E Q E E Q Q E E E Q Q E Q E E E E Q E E E

G|--------------|-----------------|--------------|------------------|

D|------------0-|-(0)-0--0--2-0-2-|--------------|------------------|

A|--------------|-----------------|-3--3----3--2-|-(2)-2-2-3--2-----|

E|-0--0--0-0----|-----------------|-------3------|--------------3-2-|

 

 

 

Q Q E Q E E Q Q E E E Q Q E Q E E E E Q E E E

G|--------------|-----------------|--------------|------------------|

D|------------0-|-(0)-0--0--2-0-2-|--------------|------------------|

A|--------------|-----------------|-3--3----3--2-|-(2)-2-2-3--2-----|

E|-0--0--0-0----|-----------------|-------3------|--------------3-2-|

 

 

 

Q Q E Q E E Q Q E E E Q Q E Q E E E E Q E E E

G|--------------|-----------------|--------------|------------------|

D|------------0-|-(0)-0--0--2-0-2-|--------------|------------------|

A|--------------|-----------------|-3--3----3--2-|-(2)-2-2-3--2-----|

E|-0--0--0-0----|-----------------|-------3------|--------------3-2-|

 

 

 

Q Q E E E E E E E E E E Q Q Q E E E E E E E Q E Q

G|---------------|------------------|---------------|-----------------|

D|-------------0-|-(0)-0-0-0-0-0-0--|---------------|------------0-0--|

A|---------------|------------------|-------------0-|-(0)-0-0-3-------|

E|-0--0--0-0-0---|------------------|-3--3--3-3-3---|-----------------|

 

 

 

Q Q E E E E E E E E E E Q Q Q E E E E Q. Q. Q

G|---------------|------------------|---------------|----------|

D|-2--2--2-2-2-0-|-(0)-0-0-0-0-0-0--|---------------|----------|

A|---------------|------------------|-------------0-|-0--0--0--|

E|---------------|------------------|-3--3--3-3-3---|----------|

 

 

 

Q Q E E E E E E E E E E Q Q Q E E E E E E E Q E Q

G|---------------|------------------|---------------|-----------------|

D|-------------0-|-(0)-0-0-0-0-0-0--|---------------|------------0-0--|

A|---------------|------------------|-------------0-|-(0)-0-0-3-------|

E|-0--0--0-0-0---|------------------|-3--3--3-3-3---|-----------------|

 

 

 

Q Q E E E E E E E E E E Q Q Q E E E E E E E Q E Q

G|---------------|------------------|---------------|-----------------|

D|-2--2--2-2-2-0-|-(0)-0-0-0-0-0-0--|---------------|------------0-0--|

A|---------------|------------------|-------------0-|-(0)-0-0-3-------|

E|---------------|------------------|-3--3--3-3-3---|-----------------|

 

 

 

Q Q E Q E E E E E Q Q Q Q E Q E E E E E Q Q

G|--------------|-----------------|--------------|-----------------|

D|---------0--2-|-(2)-2-0---0--2--|---------0--2-|-(2)-2-0---------|

A|-3--3--3------|---------2-------|-3--3--3------|---------2-0-----|

E|--------------|-----------------|--------------|--------------3--|

 

 

 

Q Q E Q E E E E E Q Q E E E E E E E E E E E E E E Q

G|--------------|-----------------|-----------------|----------------|

D|---------0--2-|-(2)-2-0---0--2--|---------------0-|-0-0-0-0-0-0-0--|

A|-3--3--3------|---------2-------|-3-3-3-3-3-3-3---|----------------|

E|--------------|-----------------|-----------------|----------------|

 

 

 

Q Q E Q E E Q Q E E E Q Q E Q E E E E Q E E E

G|--------------|-----------------|--------------|------------------|

D|------------0-|-(0)-0--0--2-0-2-|--------------|------------------|

A|--------------|-----------------|-3--3----3--2-|-(2)-2-2-3--2-----|

E|-0--0--0-0----|-----------------|-------3------|--------------3-2-|

 

 

 

Q Q E Q E E Q Q E E E Q Q E Q E E E E Q E E E

G|--------------|-----------------|--------------|------------------|

D|------------0-|-(0)-0--0--2-0-2-|--------------|------------------|

A|--------------|-----------------|-3--3----3--2-|-(2)-2-2-3--2-----|

E|-0--0--0-0----|-----------------|-------3------|--------------3-2-|

 

 

 

Q Q E Q E E Q Q E E E Q Q E Q E E E E Q E E E

G|--------------|-----------------|--------------|------------------|

D|------------0-|-(0)-0--0--2-0-2-|--------------|------------------|

A|--------------|-----------------|-3--3----3--2-|-(2)-2-2-3--2-----|

E|-0--0--0-0----|-----------------|-------3------|--------------3-2-|

 

 

 

Q Q E Q E E Q Q E E E Q Q E Q E E E E Q E E E

G|--------------|-----------------|--------------|------------------|

D|------------0-|-(0)-0--0--2-0-2-|--------------|------------------|

A|--------------|-----------------|-3--3----3--2-|-(2)-2-2-3--2-----|

E|-0--0--0-0----|-----------------|-------3------|--------------3-2-|

 

 

 

Q Q E E E E E E E E E E Q Q Q E E E E E E E Q E Q

G|---------------|------------------|---------------|-----------------|

D|-------------0-|-(0)-0-0-0-0-0-0--|---------------|------------0-0--|

A|---------------|------------------|-------------0-|-(0)-0-0-3-------|

E|-0--0--0-0-0---|------------------|-3--3--3-3-3---|-----------------|

 

 

 

Q Q E E E E E E E E E E Q Q Q E E E E E E E Q E Q

G|---------------|------------------|---------------|-----------------|

D|-2--2--2-2-2-0-|-(0)-0-0-0-0-0-0--|---------------|------------0-0--|

A|---------------|------------------|-------------0-|-(0)-0-0-3-------|

E|---------------|------------------|-3--3--3-3-3---|-----------------|

 

 

 

H. Q H. Q H. Q Q. Q. Q H. Q H. Q H. Q Q. Q. Q

G|-------|-------|-------|----------|-------|-------|-------|----------|

D|-2--2--|-0--0--|-------|-------0--|-2--2--|-0--0--|-------|-------0--|

A|-------|-------|-------|-0--3-----|-------|-------|-------|-0--3-----|

E|-------|-------|-3--3--|----------|-------|-------|-3--3--|----------|

 

 

 

(Guitar Solo)

Q Q E E E E E E E E E E Q Q Q E E E E E E E Q E Q

G|---------------|------------------|---------------|-----------------|

D|-2--2--2-2-2-0-|-(0)-0-0-0-0-0-0--|---------------|------------0-0--|

A|---------------|------------------|-------------0-|-(0)-0-0-3-------|

E|---------------|------------------|-3--3--3-3-3---|-----------------|

 

 

 

Q Q E E E E E E E E E E Q Q Q E E E E E E E Q E Q

G|---------------|------------------|---------------|-----------------|

D|-2--2--2-2-2-0-|-(0)-0-0-0-0-0-0--|---------------|------------0-0--|

A|---------------|------------------|-------------0-|-(0)-0-0-3-------|

E|---------------|------------------|-3--3--3-3-3---|-----------------|

 

 

 

Q Q E Q E E Q Q E E E Q Q E Q E E E E Q E E E

G|--------------|-----------------|--------------|------------------|

D|-2--2--2-2--0-|-(0)-0--0--2-0-2-|--------------|------------------|

A|--------------|-----------------|-3--3----3--2-|-(2)-2-2-3--2-----|

E|--------------|-----------------|-------3------|--------------3-2-|

 

 

 

Q Q E Q E E Q Q E E E Q Q E Q E E E E Q E E E

G|--------------|-----------------|--------------|------------------|

D|------------0-|-(0)-0--0--2-0-2-|--------------|------------------|

A|--------------|-----------------|-3--3----3--2-|-(2)-2-2-3--2-----|

E|-0--0--0-0----|-----------------|-------3------|--------------3-2-|

 

 

 

Q Q E Q E E Q Q E E E Q Q E Q E E E E Q E E E

G|--------------|-----------------|--------------|------------------|

D|------------0-|-(0)-0--0--2-0-2-|--------------|------------------|

A|--------------|-----------------|-3--3----3--2-|-(2)-2-2-3--2-----|

E|-0--0--0-0----|-----------------|-------3------|--------------3-2-|

 

 

 

Q Q E Q E E Q Q E E E Q Q E Q E E E E Q E E E

G|--------------|-----------------|--------------|------------------|

D|------------0-|-(0)-0--0--2-0-2-|--------------|------------------|

A|--------------|-----------------|-3--3----3--2-|-(2)-2-2-3--2-----|

E|-0--0--0-0----|-----------------|-------3------|--------------3-2-|

 

 

 

Q Q E E E E E E E E E E Q Q Q E E E E E E E Q E Q

G|---------------|------------------|---------------|-----------------|

D|-------------0-|-(0)-0-0-0-0-0-0--|---------------|------------0-0--|

A|---------------|------------------|-------------0-|-(0)-0-0-3-------|

E|-0--0--0-0-0---|------------------|-3--3--3-3-3---|-----------------|

 

 

 

Q Q E E E E E E E E E E Q Q Q E E E E Q. Q. Q W

G|---------------|------------------|---------------|----------|-----|

D|-2--2--2-2-2-0-|-(0)-0-0-0-0-0-0--|---------------|----------|-----|

A|---------------|------------------|---------------|-0--0--0--|-----|

E|---------------|------------------|-3--3--3-3-3-3-|----------|--3--|

 

 

 

 

Enjoy!

 

Return to my 3 Doors Down bass tabs page

The Tablature is Copyright its respective owners.

Sign Up For My Newsletter
Subscribe | Unsubscribe

Site Map | Disclaimer | Privacy Policy | Media Kit | Submissions/Corrections

Website © 2000-2014 mattsmusicpage.com. All rights reserved.

Get our toolbar!