Your One-Stop Source For
Music Lyrics
Bass and Guitar Tabs
and More...
>Music Lyrics Bass and Guitar Tabs

 

The Tabs Are Below

Learn To Read Tab
Chords Handbook
Corrections & Additions
Get Official Tab
3 Doors Down tabs @ 911Tabs

3 Doors Down - I Feel You

 

Intro/Verse

G-----0-------------0-----------

D------0-------------0--------0-

A---------0-------------0----2--x6

E?-0----------3--0----------3---

 

PreChorus Chorus

G--------------------------------------------- G------------------

D---------0---------------0------------2h3p2p0 D------------------

A------0h2-------------0h2-------------------- A------------------x4

E-5--0------5--0--5--0------3--3--5--5-------- E?0----3----5----3-

 

Verse x6

PreChorus

Chorus x4

 

Bridge

G?----0-----0-012-----0-----0-420-

D-22-2--22-2------22-2--22-2------

A--------------------------------- x4

E---------------------------------

 

Chorus x3

Then...

G-----------

D-----------

A-----------

E-0----3--5-

 

Rest During Outro

 

 

Return to my 3 Doors Down bass tabs page

The Tablature is Copyright its respective owners.

Sign Up For My Newsletter
Subscribe | Unsubscribe

Site Map | Disclaimer | Privacy Policy | Media Kit | Submissions/Corrections

Website © 2000-2014 mattsmusicpage.com. All rights reserved.

Legal & DMCA: Matt's Music Page has been providing lyrics and tabs in a legal way, paying royalties each year to a few organizations. Then, all lyrics and tabs were removed from the site. Now, there's a new owner to the site, which purchased it August 26, 2014, and he is in negotiation to obtain licensing from BMI at the moment. If you have a specific DMCA request -- please do not hesitate to contact me via the contact button on top. I will do my very best to keep this site fully legal.

Get our toolbar!

 

COLUMBUS NE ~ 1900's Un-Paved 13th Street ~ LYRIC THEATRE ~GERMAN NATIONAL BANK
$12.5
COLUMBUS NE ~ 1900's Un-Paved 13th Street ~ LYRIC THEATRE ~GERMAN NATIONAL BANK picture


The Lyric Theater, Boonville, Missouri Postcard
$1.49
The Lyric Theater,  Boonville,  Missouri Postcard   picture


Muse of Lyric Poetry Library of Congress nude nymphs vintage postcard
$3.95
Muse of Lyric Poetry Library of Congress nude nymphs vintage postcard picture


NEW Vintage Embossed Postcard Couple in Victorian Dress & Song Lyrics on Front
$1.4
NEW Vintage Embossed Postcard Couple in Victorian Dress & Song Lyrics on Front picture


Pepsi Cola 1947 ad with lyrics to Pepsi Jingle (at a radio qwiz)
$2.5
Pepsi Cola 1947 ad with lyrics to Pepsi Jingle (at a radio qwiz) picture