Your One-Stop Source For
Music Lyrics
Bass and Guitar Tabs
and More...
Music Lyrics Bass and Guitar Tabs

 

The Tabs Are Below

Learn To Read Tab
Chords Handbook
Corrections & Additions
Get Official Tab
3 Doors Down tabs @ 911Tabs

3 Doors Down – Here Without You

Stimmung: (E,A,D,G,B,E)

 

Bass starts in the first Chorus, before there's no bass.

 

1st. Chorus

 

G|----------------------|

D|----------------------|

A|--4--------1----------|

E|------4--------2---4--|

B|----------------------|

 

1st. Verse

 

G|-----------------------------------------|

D|-----------------------------------------|

A|--1---1-1-------------1---1-1------------|

E|------------4---4-4-------------2-2-1-4--|

B|-----------------------------------------|

 

Verse

 

G|--------------------------------------------|

D|--------------------------------------------|

A|--1---1-1----------------1---1-1------------|

E|------------4-2--4-4-1-4-----------2-2-1-4--|

B|--------------------------------------------|

 

2nd. Chorus

 

G|--------------------------------|

D|--------------------------------|

A|--4—-4/----------1---1----------|

E|---------4---1-4-------2-2-1-4--|

B|--------------------------------|

 

Bridge

 

G|--------------------------------------------|

D|--------------------------------------------|

A|-1-1-1-1-1--4-4-4-4-4-----------------------|

E|----------------------4-4-4-4-4--1-1-1-1-1--|

B|--------------------------------------------|

 

G|------------------------------------------------------|

D|------------------------------------------------------|

A|-1-1-1-1-1--4-4-4-4-4---------------------------------|

E|----------------------4-4-4-4-4--1-1-1-1-1-1-1-1-1-1--|

B|------------------------------------------------------|

 

Outro

G|--------------------------------------------------------|

D|--------------------------------------------------------|

A|--4—4-4-4-4-4-------------1-1-1-1-1-1----------------1--|

E|--------------4-4-4-4-4-4-------------2-2-1-4--4-4-4----|

B|--------------------------------------------------------|

 

Ablauf:

 

1st. Chorus 2x

1st. Verse 1x

Verse 2x

2nd. Chorus 2x

Bridge 1x

2nd. Chorus 3x

Outro 1x

 

 

Return to my 3 Doors Down bass tabs page

The Tablature is Copyright its respective owners.

Sign Up For My Newsletter
Subscribe | Unsubscribe

Site Map | Disclaimer | Privacy Policy | Media Kit | Submissions/Corrections

Website © 2000-2014 mattsmusicpage.com. All rights reserved.

Legal & DMCA: Matt's Music Page has been providing lyrics and tabs in a legal way, paying royalties each year to a few organizations. Then, all lyrics and tabs were removed from the site. Now, there's a new owner to the site, which purchased it August 26, 2014, and he is in negotiation to obtain licensing from BMI at the moment. If you have a specific DMCA request -- please do not hesitate to contact me via the contact button on top. I will do my very best to keep this site fully legal.

Get our toolbar!