Your One-Stop Source For
Music Lyrics
Bass and Guitar Tabs
and More...
Music Lyrics Bass and Guitar Tabs

 

The Tabs Are Below

Learn To Read Tab
Chords Handbook
Corrections & Additions
Get Official Tab
3 Doors Down tabs @ 911Tabs

Artist - 3 Doors Down

Album - Away from the sun

Song - Going Down In Flames

 

Tabber - Raptor613 (Raptor613@yahoo.com)

My 1st Tab i've been only playing for about a month

so I'll probaley have an error somewhere. Please correct

it if anything is wrong. I think the second part i could'nt

really get that's as close as i figured it out to be. If

you listen to song all the rhythms and timing issues you

can figure out. Plus there are many little riffs during

it, but i can't nail them.

 

Have Fun!

Great song to play!

________________________________________________

Intro.

 

G|-------------------------------------------------|

D|-------------------------------------------------| 1X

A|-------3-----------3-----------3-----------3-2-0-|

E|-0-2-3---2-3-0-2-3---3-2-0-2-3---2-3-0-2-3-------|

 

Verse.

G|---------------------------------------------------------|

D|---------------------------------------------------------| 2X

A|---------------3-3-3-3-3-3-3---------------0/5-5-5-5-5-5-|

E|-0-0-0-0-0-0-0---------------3-3-3-3-3-3-3---------------|

 

Pre-Chorus & Chorus.

G|-------------------------------|

D|-------------------------------|

A|---------3---------------0/5---|4X

E|-0-0-2-3----------3------------|

 

Intro Verse Pre-Chorus & Chorus get played 2X in the order above till 1:57

 

Bridge

 

G|---------------------------------------------------------|

D|---------------------------------------------------------| 2X

A|---------------3---3---3---3---------------0----0------0-|

E|-0-----0-----0---------------3-----3----3----------------|

 

2nd Part of Bridge.

 

G|--------------------------|

D|-------0-----2------------|4X

A|-------------------3---2--|

E|-0------------------------|

 

Chorus.

G|-------------------------------|

D|-------------------------------|

A|---------3-------2-------0/5---|2X

E|-0-0-2-3-----------------------|

Bridge

 

G|---------------------------------------------------------|

D|---------------------------------------------------------| 4X

A|---------------3---3---3---3---------------0----0------0-|

E|-0-----0-----0---------------3-----3----3----------------|

 

Outro (End on)

 

G|------------|

D|(2*)--------| * Optional Octave

A|------------| for effect.

E|-0~---------|

 

 

 

Return to my 3 Doors Down bass tabs page

The Tablature is Copyright its respective owners.

Sign Up For My Newsletter
Subscribe | Unsubscribe

Site Map | Disclaimer | Privacy Policy | Media Kit | Submissions/Corrections

Website © 2000-2014 mattsmusicpage.com. All rights reserved.

Legal & DMCA: Matt's Music Page has been providing lyrics and tabs in a legal way, paying royalties each year to a few organizations. Then, all lyrics and tabs were removed from the site. Now, there's a new owner to the site, which purchased it August 26, 2014, and he is in negotiation to obtain licensing from BMI at the moment. If you have a specific DMCA request -- please do not hesitate to contact me via the contact button on top. I will do my very best to keep this site fully legal.

Get our toolbar!

 

VINTAGE SORRENTO MUSIC JEWELRY BOX
$45.0
VINTAGE SORRENTO MUSIC JEWELRY BOX picture


VINTAGE LACQUERED MUSIC BOX JAPAN
$25.99
VINTAGE LACQUERED MUSIC BOX JAPAN picture


Vintage Kehlsteinhaus Bavaria Germany Colorscope Cow Bell View Master Music Box
$8.99
Vintage Kehlsteinhaus Bavaria Germany Colorscope Cow Bell View Master Music Box picture


VINTAGE SCHMIDT Signed Collectible Musical Turning Clown
$9.99
VINTAGE  SCHMIDT Signed Collectible Musical Turning Clown picture


Vintage - Linen - Postcard - Stage - Radio City Music Hall - New York City
$3.75
Vintage - Linen - Postcard - Stage - Radio City Music Hall - New York City   picture