Your One-Stop Source For
Music Lyrics
Bass and Guitar Tabs
and More...
Music Lyrics Bass and Guitar Tabs

 

The Tabs Are Below

Learn To Read Tab
Chords Handbook
Corrections & Additions
Get Official Tab
3 Doors Down tabs @ 911Tabs

Bass dosent start till 00:14

Verse

|----------------------------------------|

|-3--2---------------3--2--------------| 2x

|--------3--2---------------------------|

|-------------------------------3-------|

 

Chorus

|-------------------------------------------------------------|

|-----3------------------3-----------------------------------| 2x

|-----------3--2--3-----------2-3-5-------------------------|

|-------------------------------------5-3--------------------|

2nd time play

|--------------------|

|--------------------|

|--2-3-5------------|

|---------3----------

 

post-chours and verse(all together)

|----------------------------------------|

|-3--2---------------3--2--------------| 3x

|--------3--2---------------------------|

|-------------------------------3-------|

 

Chorus

|-------------------------------------------------------------|

|-----3------------------3-----------------------------------| 4x

|-----------3--2--3-----------2-3-5-------------------------|

|-------------------------------------5-3--------------------|

4th time play

|--------------------|

|--------------------|

|--2-3-5------------|

|---------3----------|

 

break

|-------------------------------------------|

|-------------------------------------------|

|--1111111-------------------------------|

|--------------33333333--5555555-4-3-|

 

REST

 

No bass till 2:40

 

|--------------------------------------------|

|--3--2---------------3--0-2---------------|

|---------3--0-2--0------------------------|

|--------------------------------0-3--------|

 

Chorus

|-------------------------------------------------------------|

|-----3------------------3-----------------------------------| 4x

|-----------3--2--3-----------2-3-5-------------------------|

|-------------------------------------5-3--------------------|

4th time play

|--------------------|

|--------------------|

|--2-3-5------------|

|---------3----------|

 

Ending

|-------------------------------------------|

|-------------------------------------------|

|--1111111-------------------------------|

|--------------33333333--5555555-4-3-|

 

 

Return to my 3 Doors Down bass tabs page

The Tablature is Copyright its respective owners.

Sign Up For My Newsletter
Subscribe | Unsubscribe

Site Map | Disclaimer | Privacy Policy | Media Kit | Submissions/Corrections

Website © 2000-2014 mattsmusicpage.com. All rights reserved.

Legal & DMCA: Matt's Music Page has been providing lyrics and tabs in a legal way, paying royalties each year to a few organizations. Then, all lyrics and tabs were removed from the site. Now, there's a new owner to the site, which purchased it August 26, 2014, and he is in negotiation to obtain licensing from BMI at the moment. If you have a specific DMCA request -- please do not hesitate to contact me via the contact button on top. I will do my very best to keep this site fully legal.

Get our toolbar!