Your One-Stop Source For
Music Lyrics
Bass and Guitar Tabs
and More...
Music Lyrics Bass and Guitar Tabs

 

The Tabs Are Below

Learn To Read Tab
Chords Handbook
Corrections & Additions
Get Official Tab
3 Doors Down tabs @ 911Tabs

Artist: 3 Doors Down

Song: Away From The Sun

 

Tabbed by: Chris Moore & Justin McCormick

Contact me: jmccormick79@hotmail.com

 

STANDARD TUNING

 

Alright this is an awesome song to play. We tabbed this in like an hour so

if there are any mistakes, feel free to email us with any corrections. We

tabbed this for one guitar, but we have added the fill that a 2nd guitar

plays after the bridge.

 

The intro and verse are all the same...plus Chorus 1 also ends with the same

notes as the verse. We tabbed out the rhythm for the entire song, except for

the bridge and ending.

 

Just for reference here is the number of times you will go through the tab for

each section.

 

REFERENCE

 

Intro -- 1x

Verse 1 -- 2x

Chorus -- 1x

Verse 2 -- 3x

Chorus 2 -- 2x

Bridge

Verse 3 -- 2x

Chorus 2 -- 2x

Ending

 

Intro

 

F? Am7 C G?

|-----------------------------------------------------------------------0-

|---1-----1-------1---1------1----0h1-------1------1----1---1-----0---3---

|-----0------0----------0------0------0-------0------0---------0----0-----

|-3-----3-------3---2-----2-------------2---------------------------------

|-----------------------------------------3-----3------3---2-----2--------

|-------------------------------------------------------------------------

 

F? Am7 G

---------------------------------------------------------------|

----1-----1-------1---1-----1----0h1--------3----1-0---3---1-0-|

------0------0----------0-----0------0--------0----------0-----|

--3-----3-------3---2-----2------------2-----------------------|

---------------------------------------------------------------|

------------------------------------------3----------3---------|

 

 

Verse 1

 

F? Am7 C G?

|-----------------------------------------------------------------------0-

|---1-----1-------1---1------1----0h1-------1------1----1---1-----0---3---

|-----0------0----------0------0------0-------0------0---------0----0-----

|-3-----3-------3---2-----2-------------2---------------------------------

|-----------------------------------------3-----3------3---2-----2--------

|-------------------------------------------------------------------------

It's down to this I've got ...

I've missed the life I've missed ...

 

F? Am7 G

---------------------------------------------------------------|

----1-----1-------1---1-----1----0h1--------3----1-0---3---1-0-|

------0------0----------0-----0------0--------0----------0-----|

--3-----3-------3---2-----2------------2-----------------------|

---------------------------------------------------------------|

------------------------------------------3----------3---------|

Can anyone do what I've done

Can anyone tell where I am

 

 

Chorus 1

 

F5 F5

|---------------------------------------------------------------------

|---------------------------------------------------------------------

|--------------------------0-----0----------------------0-------------

|-3-3--------------------0-----0------3-3-------------0---------------

|-3-3------------------3-----2-----3--3-3-----------3-----2--2s3s2----

|-1-1---------------------------------1-1-----------------------------

Cause now again I've found myself So far down away from the sun

 

---------------------------------------------------------------------|

---------------------------------------------------------------------|

---------------------------0-----0-----------------------------------|

--3-3--------------------0-----0------3-3-----------------0----2--3--|

--3-3------------------3-----2-----3--3-3------------3------------3--|

--1-1---------------------------------1-1-------------------------1--|

That shines into the darkest place I'm so far down away from the sun

 

|-----------------------------------------------------------------------0-

|---1-----1-------1---1------1----0h1-------1------1----1---1-----0---3---

|-----0------0----------0------0------0-------0------0---------0----0-----

|-3-----3-------3---2-----2-------------2---------------------------------

|-----------------------------------------3-----3------3---2-----2--------

|-------------------------------------------------------------------------

Away from the sun again

 

--------------------------------------------------------------|

---1-----1-------1---1-----1----0h1--------3----1-0---3---1-0-|

-----0------0----------0-----0------0--------0----------0-----|

-3-----3-------3---2-----2------------2-----------------------|

--------------------------------------------------------------|

-----------------------------------------3----------3---------|

 

 

Verse 2

 

F? Am7 C G?

|-----------------------------------------------------------------------0-

|---1-----1-------1---1------1----0h1-------1------1----1---1-----0---3---

|-----0------0----------0------0------0-------0------0---------0----0-----

|-3-----3-------3---2-----2-------------2---------------------------------

|-----------------------------------------3-----3------3---2-----2--------

|-------------------------------------------------------------------------

I'm over this I'm tired...

The feeling is gone There's nothing...

 

F? Am7 G

---------------------------------------------------------------|

----1-----1-------1---1-----1----0h1--------3----1-0---3---1-0-|

------0------0----------0-----0------0--------0----------0-----|

--3-----3-------3---2-----2------------2-----------------------|

---------------------------------------------------------------|

------------------------------------------3----------3---------|

Can anyone see me down here

Back into the world I've known

 

 

Chorus 2

 

F5 F5

|---------------------------------------------------------------------

|---------------------------------------------------------------------

|--------------------------0-----0----------------------0-------------

|-3-3--------------------0-----0------3-3-------------0---------------

|-3-3------------------3-----2-----3--3-3-----------3-----2--2s3s2----

|-1-1---------------------------------1-1-----------------------------

Cause now again I've found myself So far down away from the sun

That shines the life away from me To find ... back into the arms

 

---------------------------------------------------------------------|

---------------------------------------------------------------------|

---------------------------0-----0-----------------------------------|

--3-3--------------------0-----0------3-3-----------------0----2--3--|

--3-3------------------3-----2-----3--3-3------------3------------3--|

--1-1---------------------------------1-1-------------------------1--|

That shines into the darkest place I'm so far down away from the sun

That care about the ones like me I'm so far down away from the sun again

 

Bridge & Ending Fill (Played as Bridge fades)

Gtr I Gtr II

 

Am Gadd4 F G

|-0--------3--------1------3------| |---8h10--8p0--0h8--10---|

|-1--------1--------1------3------| |---8-----8----8----8----|

|-2--------0--------2------0------| |------------------------|

|-2--------0--------3------0------| |------------------------|

|----------2--------3------2------| |------------------------|

|----------3--------1------3------| |------------------------|

 

 

Verse 3

 

F? Am7 C G?

|-----------------------------------------------------------------------0-

|---1-----1-------1---1------1----0h1-------1------1----1---1-----0---3---

|-----0------0----------0------0------0-------0------0---------0----0-----

|-3-----3-------3---2-----2-------------2---------------------------------

|-----------------------------------------3-----3------3---2-----2--------

|-------------------------------------------------------------------------

It's down to this I've got ...

And now again I've found myself So far down, away ...

 

F? Am7 G

---------------------------------------------------------------|

----1-----1-------1---1-----1----0h1--------3----1-0---3---1-0-|

------0------0----------0-----0------0--------0----------0-----|

--3-----3-------3---2-----2------------2-----------------------|

---------------------------------------------------------------|

------------------------------------------3----------3---------|

And now I can't tell what I've done

That shines the life away from me

 

 

Repeat Chorus 2 w/ Ending (No Fill)

 

Return to my 3 Doors Down tabs page

The Tablature is Copyright its respective owners.

Sign Up For My Newsletter
Subscribe | Unsubscribe

Site Map | Disclaimer | Privacy Policy | Media Kit | Submissions/Corrections

Website © 2000-2014 mattsmusicpage.com. All rights reserved.

Legal & DMCA: Matt's Music Page has been providing lyrics and tabs in a legal way, paying royalties each year to a few organizations. Then, all lyrics and tabs were removed from the site. Now, there's a new owner to the site, which purchased it August 26, 2014, and he is in negotiation to obtain licensing from BMI at the moment. If you have a specific DMCA request -- please do not hesitate to contact me via the contact button on top. I will do my very best to keep this site fully legal.

Get our toolbar!