Your One-Stop Source For
Music Lyrics
Bass and Guitar Tabs
and More...
Music Lyrics Bass and Guitar Tabs

 

The Tabs Are Below

Learn To Read Tab
Chords Handbook
Corrections & Additions
Get Official Tab
3 Doors Down tabs @ 911Tabs

Title: Landing In London

Artist: 3 Doors Down

Album: 17 Days

 

Instrument: Drums

 

Tabbed by: Travis Campbell (travis_campbell06@yahoo.com)

 

 

Notes:

g-ghost note

d-roll or "double hit"

b-bell on ride

 

C1|----------------||

HH|----------------||

SD|----------------||REST 26 Times

B1|----------------||

1e+a2e+a3e+a4e+a||

 

 

VERSE 2

 

 

C1|X---------------|----------------|----------------|----------------||

HH|-xxxxxxxxxxxxxxx|xxxxxxxxxxxxxx0-|xxxxxxxxxxxxxxxx|xxxxxxxxxx0-xxxx||

SD|----0-------0---|----0-------0---|----0-------0---|----0-------0---||

B1|0--------------0|0-------------0-|0--------------0|0------0--------||

1e+a2e+a3e+a4e+a|1e+a2e+a3e+a4e+a|1e+a2e+a3e+a4e+a|1e+a2e+a3e+a4e+a||

 

 

C1|X---------------|----------------|----------------|----------------||

HH|-xxxxxxxxxxxxxxx|xxxxxxxxxxxxxx0-|xxxxxxxxxxxxxxxx|xxxxxxxxxxxxxxxx||

SD|----0-------0---|----0-------0---|----0-------0---|----0-------0---||

B1|0--------------0|0-------------0-|0--------------0|0---------------||

1e+a2e+a3e+a4e+a|1e+a2e+a3e+a4e+a|1e+a2e+a3e+a4e+a|1e+a2e+a3e+a4e+a||

 

 

C1|----------------|----------------|----------------|----------------||

HH|xxxxxxxxxxxxxxxx|xxxxxxxxxxxxxx0-|xxxxxxxxxxxxxxxx|xxxx0-0-X-X-X-0-||

SD|----0-------0---|----0-------0---|----0-------0---|----0--0----0---||

B1|0--------------0|0-------------0-|0--------------0|0--------00-----||

1e+a2e+a3e+a4e+a|1e+a2e+a3e+a4e+a|1e+a2e+a3e+a4e+a|1e+a2e+a3e+a4e+a||

 

 

PRE-CHORUS

 

 

C1|X---------------|----------------|----------------|----------------||

HH|--x-x-x-x-x-x-x-|x-x-x-x-x-x-x-0-|x-x-x-x-x-x-x-x-|x-x-x-x-x-x-x-0-||

SD|----0-------0---|----0-------0---|----0-------0--g|----0-------0---||

B1|0------0--0-----|0------0--0-----|0------0--0-----|0------0--0-----||

1e+a2e+a3e+a4e+a|1e+a2e+a3e+a4e+a|1e+a2e+a3e+a4e+a|1e+a2e+a3e+a4e+a||

 

 

C1|X---------------|----------------|----------------|----------------||

HH|--x-x-x-x-x-x-x-|x-x-x-x-x-x-x-0-|x-x-x-x-x-x-x-x-|0-0-0-0-0-0-----||

SD|----0-------0---|----0-------0---|----0-------0---|----0-0-----0---||

T1|----------------|----------------|----------------|-------------0--||

T2|----------------|----------------|----------------|--------------0-||

FT|----------------|----------------|----------------|---------------0||

B1|0------0--0-----|0------0--0-----|0------0--0-----|0--0-----00-----||

1e+a2e+a3e+a4e+a|1e+a2e+a3e+a4e+a|1e+a2e+a3e+a4e+a|1e+a2e+a3e+a4e+a||

 

 

CHORUS 2

 

 

C1|X---------------|----------------|X---------------|----------------||

Ri|--x-x-x-x-x-x-x-|x-x-x-x-x-x-x-x-|--x-x-x-x-x-x-x-|x-x-x-x-x-x-x---||

T1|----------------|----------------|----------------|--------------0-||

T2|----------------|----------------|----------------|---------------0||

SD|----0-------0---|----0-------0---|----0-------0---|----0-------0---||

B1|0------0--0-----|0------0--0-----|0------0--0-----|0------0--0-----||

1e+a2e+a3e+a4e+a|1e+a2e+a3e+a4e+a|1e+a2e+a3e+a4e+a|1e+a2e+a3e+a4e+a||

 

 

C1|X---------------|X---------------|X---------------|----------------||

Ri|--x-x-x-x-x-x-x-|----------------|--0-0-0-0-0-0-0-|0-----0-0-------||

HH|----------------|----------------|----------------|----------------||

T1|-------0--------|----------------|----------------|------------d---||

T2|----------0-----|----------------|----------------|---------0---0--||

FT|-------------0--|----------------|----------------|--------------0-||

SD|----0-----------|----------------|----0-------0---|--f-00----f-----||

B1|0--------------0|0---------------|0------0--0----0|0------0-------0||

1e+a2e+a3e+a4e+a|1e+a2e+a3e+a4e+a|1e+a2e+a3e+a4e+a|1e+a2e+a3e+a4e+a||

 

 

 

BRIDGE

 

 

 

C1|X---------------|----------------|X---------------|----------------||

HH|--0-0-0-0-0-0-0-|0-0-0-0-0-0-0-0-|--0-0-0-0-0-0-0-|0-0-0-0-0-0-0-0-||

T1|----------------|---------------0|----------------|----------------||

SD|----0--------0--|----0-------0---|----0-------0---|----0--0----0-00||

B1|0------0--0----0|0------0--0-----|0------0--0----0|0--0-----00-----||

1e+a2e+a3e+a4e+a|1e+a2e+a3e+a4e+a|1e+a2e+a3e+a4e+a|1e+a2e+a3e+a4e+a||

 

 

 

C1|X---------------|--------------S-|X---------------|----------------||

HH|--0-0-0-0-0-0-0-|0-0-0-0-0-0-0---|--0-0-0-0-0-0-0-|0-0-0-0-0-0-----||

T1|----------------|----------------|----------------|-------------0--||

T2|----------------|----------------|----------------|------0-------0-||

FT|----------------|----------------|----------------|---------------0||

SD|----0-------0---|----0-------0---|----0-------0---|----0--0---00---||

B1|0--0---0--0----0|0------0--0---0-|0------0--0----0|0--0-----00-----||

1e+a2e+a3e+a4e+a|1e+a2e+a3e+a4e+a|1e+a2e+a3e+a4e+a|1e+a2e+a3e+a4e+a||

 

 

 

CHORUS 3

 

C1|X---------------|----------------|----------------|X---X-----------||

Ri|--x-x-x-x-x-x-x-|x-x-x-x-x-x-x-x-|x-x-x-x-x-x-x-x-|--x---x-x-x-x---||

T1|----------------|----------------|----------------|--------------00||

SD|----0-------0---|----0-------0---|----0-------0---|----0--0----0---||

B1|0------0--0-----|0------0--0-----|0------0--0-----|0--0-----00-----||

1e+a2e+a3e+a4e+a|1e+a2e+a3e+a4e+a|1e+a2e+a3e+a4e+a|1e+a2e+a3e+a4e+a||

 

 

 

 

C1|X---------------|----------------|X---------------|X---X-----------||

Ri|--x-x-x-x-x-x-x-|x-x-x-x-x-x-x-b-|--x-x-x-x-x-x-x-|--x-------------||

T1|----------------|----------------|----------------|-------------0--||

T2|----------------|----------------|----------------|--------------0-||

FT|----------------|----------------|----------------|---------------0||

SD|----0-------0---|----0-------0---|----0-------0---|----0-00-f-00---||

B1|0------0--0-----|0------0--0---0-|0------0--0----0|0--0------------||

1e+a2e+a3e+a4e+a|1e+a2e+a3e+a4e+a|1e+a2e+a3e+a4e+a|1e+a2e+a3e+a4e+a||

 

OUTRO

 

 

C1|X---------------|----------------|X---------------|----------------||

HH|--0-0-0-0-0-0-0-|0-0-0-0-0-0-0-0-|--0-0-0-0-0-0-0-|0-0-0-0-0-0-0---||

SD|----0-------0---|----0-------0---|----0-------0---|----0-------0-00||

B1|0------0--0-----|0------0--0-----|0------0--0-----|0------0--0-----||

1e+a2e+a3e+a4e+a|1e+a2e+a3e+a4e+a|1e+a2e+a3e+a4e+a|1e+a2e+a3e+a4e+a||

 

 

 

 

C1|X---------------|X---------------|----------------|----------------||

HH|--0-0---x---x---|----------------|----------------|----------------||

T1|-------------0--|----------------|----------------|----------------||

T2|--------------0-|----------------|----------------|----------------||

FT|---------------0|----------------|----------------|----------------||

SD|----0-f--00-----|----------------|----------------|----------------||

B1|0--0------------|0---------------|----------------|----------------||

1e+a2e+a3e+a4e+a|1e+a2e+a3e+a4e+a|1e+a2e+a3e+a4e+a|1e+a2e+a3e+a4e+a||

 

 

 

This is my first actual tab, so if there is any suggestions or corrections that need

to be made, i'm open. So e-mail me at travis_campbell06@yahoo.com. Thanx, hope you

enjoy this tab.

 

 

 

Return to my 3 Doors Down drum tabs page

The Tablature is Copyright its respective owners.

Sign Up For My Newsletter
Subscribe | Unsubscribe

Site Map | Disclaimer | Privacy Policy | Media Kit | Submissions/Corrections

Website © 2000-2014 mattsmusicpage.com. All rights reserved.

Legal & DMCA: Matt's Music Page has been providing lyrics and tabs in a legal way, paying royalties each year to a few organizations. Then, all lyrics and tabs were removed from the site. Now, there's a new owner to the site, which purchased it August 26, 2014, and he is in negotiation to obtain licensing from BMI at the moment. If you have a specific DMCA request -- please do not hesitate to contact me via the contact button on top. I will do my very best to keep this site fully legal.

Get our toolbar!