Your One-Stop Source For
Music Lyrics
Bass and Guitar Tabs
and More...
Music Lyrics Bass and Guitar Tabs

 

The Tabs Are Below

Learn To Read Tab
Chords Handbook
Corrections & Additions
Get Official Tab
311 tabs @ 911Tabs

311

wake up your mind

 

 

 

<#>=naturalharmonic

h=hammeron

p=pull off

 

Intro/Chorus

1:--------

2:--------

3:--------

4:--------

5:-4---4-4

6:---4---- (he may add power chords, but i doubt it)

 

Riff 1

1:-----------------------------

2:-----------------------------

3:-----------------------------

4:-----------------------------22-x-2

5:-4-4-x-------1h2p1p0-0-00-x-00-x-0

6:-------4-4-x-----------------

 

Riff 2

1:---------------------------------------

2:---------------------------------------

3:---------------------------------------

4:-------------------------------2-2--------

5:-2----------2-x-5-5-1h2p1p0-2-0-0-2-3-2-3

6:-0-<3><3>-0-x-3-3----------------------

 

Riff 3

1:------------------------------------------

2:------------------------------------------

3:------------------------------------------

4:------------------------------------------

5:-2----------2-x-5-5-1h2p1p0-2-1-2-1-22-1-2-7

6:-0-<3><3>-0-x-3-3-------------------------

 

Riff 4

5:-0-1-0-2-1-0-1-7

6:----------------

 

bridge

5:-2-2-2

6:-0-0-0

 

other part

5:-7-7--------------- (im justtotally guessing

6:-----7-7-5-5-3-3-2-0 on this part)

 

solo:(unavailable)

 

 

 

Click here to return to my 311 tabs page

The Tablature is Copyright its respective owners.

Sign Up For My Newsletter
Subscribe | Unsubscribe

Site Map | Disclaimer | Privacy Policy | Media Kit | Submissions/Corrections

Website © 2000-2014 mattsmusicpage.com. All rights reserved.

Legal & DMCA: Matt's Music Page has been providing lyrics and tabs in a legal way, paying royalties each year to a few organizations. Then, all lyrics and tabs were removed from the site. Now, there's a new owner to the site, which purchased it August 26, 2014, and he is in negotiation to obtain licensing from BMI at the moment. If you have a specific DMCA request -- please do not hesitate to contact me via the contact button on top. I will do my very best to keep this site fully legal.

Get our toolbar!