Your One-Stop Source For
Music Lyrics
Bass and Guitar Tabs
and More...
Music Lyrics Bass and Guitar Tabs

 

The Tabs Are Below

Learn To Read Tab
Chords Handbook
Corrections & Additions
Get Official Tab
311 tabs @ 911Tabs

 

311

'Sweet (No SA)'

Performed by 311

From the album "311" on Capricorn Records

Music by: T. Mahoney

Lyrics by: N. Hexum & D. Martinez

(c) 1995 Allegiance Music/Hydroponic Music BMI

----------

Tabbed by: Josh Tyson (jotyson@vt.edu)

Additions/Corrections by: Michael Slusarz (slusarz@ucsu.colorado.edu)

Gregory Parr (gparr@tiger.lsuiss.ocs.lsu.edu)

Chris McCoy (misterkite@msn.com)

The 311 Guitar Archive -- http://chromosome.colorado.edu/311archive/

 

 

Riff 1 (Clean):

===============

E7 A

1:-7-7-7-7---7-----5-5-5-5---5-

2:-9-9-9-9---9-----5-5-5-5---5-

3:-7-7-7-7---7-----6-6-6-6---6-

4:-9-9-9-9---9-----------------

5:-7-7-7-7---7-----------------

6:-----------------------------

 

Riff 2 (Clean):

===============

Abdim A

1:-7--7----5--5-

2:-9--9----6--6-

3:-7--7----6--6-

4:--------------

5:--------------

6:--------------

 

Fill (Lead Guitar w/wah wah):

=============================

This is the lead guitar played through a Wah and muted.

The Guitar has a double octave fretboard.

Play during the Verses.

 

N.C.

1:---------------------------------

2:---------------------------------

3:---------1---1-2---------------2-

4:-2-2-2-2---2---------------------

5:-----------------0-0-0-0-4-0-4---

6:---------------------------------

 

N.C.

1:-----------------------------

2:-------------------------2---

3:---------1---1-2-2-2-2-2---2-

4:-2-2-2-2---2-----------------

5:-----------------------------

6:-----------------------------

 

N.C.

1:---------------------------------

2:---------------------------------

3:---------1---1-2---------------2-

4:-2-2-2-2---2---------------------

5:-----------------0-0-0-0-4-0-4---

6:---------------------------------

 

N.C.

1:-------------------------------

2:-------------------------------

3:---------1---1-2---------2-3-2-

4:-2-2-2-2---2-----2-2-2-2-------

5:-------------------------------

6:-------------------------------

 

Chorus (w/Distortion):

======================

N.C.

1:------------------------------------------------------------

2:---------------b9b------------------------------------------

3:------------7------7----------------------------------------

4:-----6-7-9------------9-7-6-7-6-0---------------------------

5:-5-7-------------------------------5-4---4--4--4--5--4------

6:---------------------------------------5----------------5-3-

 

Pre-Solo:

=========

Abdim A Abdim A N.C.

1:----------------------------------14-12-

2:-12-12-12-14-14-14-12-12-12-14-14-------

3:-13-13-13-14-14-14-13-13-13-14-14-------

4:-12-12-12-14-14-14-12-12-12-14-14-------

5:----------------------------------------

6:----------------------------------------

Abdim A Abdim A N.C.

1:----------------------------------16-14-12-

2:-12-12-12-14-14-14-12-12-12-14-12----------

3:-13-13-13-14-14-14-13-13-13-14-------------

4:-12-12-12-14-14-14-12-12-12-14-------------

5:-------------------------------------------

6:-------------------------------------------

 

N.C.

1:---------------------------------------------

2:-2//9-9-9--------5//9-9-9--------------------

3:----------7~-6~-----------7-7-7-6-6-6-7-8//9-

4:---------------------------------------------

5:---------------------------------------------

6:---------------------------------------------

 

N.C.

1:------------------------------------------------------

2:-5//9-9-9---------------------------------------------

3:-----------7-7-6-7-6-2-1--------------13----13//14-14-

4:-------------------------1-2-6-7-9-12----12-----------

5:------------------------------------------------------

6:------------------------------------------------------

 

Solo (Distorted/Echoed/Chorused):

=================================

[Version 1:]

N.C.

1:-17-16-14--16-14-----------------------------------------------

2:-----------------17-15h17p15----15-----------------------------

3:-----------------------------16----16-14\\13----------------13-

4:---------------------------------------------14-12-11h12-14----

5:---------------------------------------------------------------

6:---------------------------------------------------------------

 

N.C.

1:-------------------15-15//17-17-17-17--16--17--19-19-19--16h17p16----

2:----12-14-15-17-19------------------------------------------------17-

3:-14------------------------------------------------------------------

4:---------------------------------------------------------------------

5:---------------------------------------------------------------------

6:---------------------------------------------------------------------

 

N.C.

1:-16h19p16----14h17p14-------------------------16h17p16h17p16h17-

2:----------17----------15-12----------------15-------------------

3:----------------------------14-13----13-14----------------------

4:----------------------------------12----------------------------

5:----------------------------------------------------------------

6:----------------------------------------------------------------

 

N.C.

1:-17h19p17h19p17h19-19h21p19h21p19h21-22\\-0-15h17p15h17p15-

2:-----------------------------------------------------------

3:-----------------------------------------------------------

4:-----------------------------------------------------------

5:-----------------------------------------------------------

6:-----------------------------------------------------------

 

N.C.

1:-h17p15h17p15h17--------b15b--b16b--b17b--b17b-

2:-----------------b18b---b19b--------------b19b-

3:-----------------------------------------------

4:-----------------------------------------------

5:-----------------------------------------------

6:-----------------------------------------------

 

[Version 2:]

 

N.C.

1:-17-16-14-16-12-9-9h10p9-7---------4-b4b-4-b4b-4-5-7-9-10//14-16-17-

2:---------------------------9-5-3-5----------------------------------

3:--------------------------------------------------------------------

4:--------------------------------------------------------------------

5:--------------------------------------------------------------------

6:--------------------------------------------------------------------

 

N.C.

1:-17-17-17-16-17-19-19-19-17-16-12-19-17-16-17-16-14---------------b15b-

2:----------------------------------------------------12-10-9-----12-----

3:--------------------------------------------------------------13-------

4:------------------------------------------------------------12---------

5:-----------------------------------------------------------------------

6:-----------------------------------------------------------------------

 

N.C.

1:-t16t-tf19tf-t20t-22\\\\--------------------------

2:-------------------------b11b-b11b-b11b-b11b-b11b-

3:--------------------------------------------------

4:--------------------------------------------------

5:--------------------------------------------------

6:--------------------------------------------------

 

N.C.

1:-b14b-12-b15b-b16b-------b17b-12\\\\-5-4-0-b4b-b4b-0-5-4-0---

2:----------14-----------------------------------------------3-

3:-------------------------------------------------------------

4:-------------------------------------------------------------

5:-------------------------------------------------------------

6:-------------------------------------------------------------

 

( NOTE: a t(note)t is a 1/2 step flutter trill

f(note)tf is a full step trill.

Bends differ in magnitude just listen )

 

 

Lyrics/Song Structure:

======================

---> Bass Intro

---> Play Riff 1 over:

Take a chance on something star you gotta

All the live long day

If I had to name one thing you think data

Be hard pressed to say

You can't say I'm gushy, At least you know what I think

I know that I'm lucky, I know you're on the brink

You got it good good good, You got it good so good

---> Play Riff 2 over:

You make up ridiculous words which mean exactly nothing

I know just what you mean and that's the funny thing

It's understood, It's understood

---> Play Chorus over:

Buddy buddy buddy I know why you wander

Through the sweetness on the ground

The sweetness of the flowers

You make your way on a cloudy day

You've got to move

The world you prove is too sweet, yeah

---> Play Riff 1 over:

We parted much too soon I know but that's how it goes

There's someone better out there for you and me

Can't wait to get on the road and feel the shows

And be like phenomenon number 1 and 2 and 3

---> Play Riff 2 over:

I don't mean to brag, I don't mean to boast

But I am the guy that could give you the most

It's good good good, It's understood

---> Play Chorus over:

Buddy buddy buddy I know why you wander

Through the sweetness on the ground

The sweetness of the flowers

You make your way on a cloudy day

You've got to move

The world you prove is too sweet, yeah

---> Play Pre-Solo

---> Solo over Chorus

 

 

 

Click here to return to my 311 tabs page

The Tablature is Copyright its respective owners.

Sign Up For My Newsletter
Subscribe | Unsubscribe

Site Map | Disclaimer | Privacy Policy | Media Kit | Submissions/Corrections

Website © 2000-2014 mattsmusicpage.com. All rights reserved.

Legal & DMCA: Matt's Music Page has been providing lyrics and tabs in a legal way, paying royalties each year to a few organizations. Then, all lyrics and tabs were removed from the site. Now, there's a new owner to the site, which purchased it August 26, 2014, and he is in negotiation to obtain licensing from BMI at the moment. If you have a specific DMCA request -- please do not hesitate to contact me via the contact button on top. I will do my very best to keep this site fully legal.

Get our toolbar!