Your One-Stop Source For
Music Lyrics
Bass and Guitar Tabs
and More...
Music Lyrics Bass and Guitar Tabs

 

The Tabs Are Below

Learn To Read Tab
Chords Handbook
Corrections & Additions
Get Official Tab
311 tabs @ 911Tabs

 

311: Six-Bridge

 

[This was created with TabIt for Windows version 1.3]

 

E :----------------|--------------------|----------------|

B :----------------|--------------------|----------------|

G :----------------|--------------------|----------------|

D :-5---3---2--2--2|---------------2--2-|-2--------------|

A :-3---3---2--2--2|----------2-2--2--2-|-2--3-3-3-------|

E :-3---1---0--0--0|--0-h2-h3------0--0-|-0--------2-2-3-|

 

E :----------------------|-------------------|----------------|

B :----------------------|-------------------|----------------|

G :----------------------|-------------------|----------------|

D :------------2--2--2---|-----------2--2--2-|-3-2-----3-2----|

A :------------2--2--2---|------2-2--2--2--2-|-----3-1-----3--|

E :2-h3-p2-h3--0--0--0--0|h2-h3------0--0--0-|----------------|

 

E :----------------|----------------|----------------|----------------|

B :----------------|----------------|----------------|----------------|

G :----------------|----------------|----------------|----------------|

D :2--2--2-----5---|2----------2--2-|-2--------------|-------2--2--2--|

A :2--2--2-------5-|--2----5---2--2-|-2--------------|-------2--2--2--|

E :0--0--0---3-----|----3------0--0-|-0--7-6-6-5-5-4-|4-3-2--0--0--0--|

 

E :----------------------------------------------------|

B :----------------------------------------------------|

G :----------------------------------------------------|

D :----------------------------------------------------|

A :----------------------------------------------------|

E :15-/14-/13-/12-/11-/10-/9-/8-/7-/6-/5-/4-/3-/2-/1-/0|

 

E :---------------------------------------|----------------|

B :---------------------------------------|----------------|

G :---------------------------------------|----------------|

D :------------------------------------2--|2--2------------|

A :------------------------------------2--|2--2--3-3-3-----|

E :/1-/2-/3-/4-/5-/6-/7-/8-/9-/10-/11--0--|0--0--------2-2-|

 

E :----------------------------|

B :----------------------------|

G :----------------------------|

D :----------------------------|

A :----------------------------|

E :3-2-h3-p2-h3--2-3-2-h3-p2-h3|

 

Click here to return to my 311 tabs page

The Tablature is Copyright its respective owners.

Sign Up For My Newsletter
Subscribe | Unsubscribe

Site Map | Disclaimer | Privacy Policy | Media Kit | Submissions/Corrections

Website © 2000-2014 mattsmusicpage.com. All rights reserved.

Legal & DMCA: Matt's Music Page has been providing lyrics and tabs in a legal way, paying royalties each year to a few organizations. Then, all lyrics and tabs were removed from the site. Now, there's a new owner to the site, which purchased it August 26, 2014, and he is in negotiation to obtain licensing from BMI at the moment. If you have a specific DMCA request -- please do not hesitate to contact me via the contact button on top. I will do my very best to keep this site fully legal.

Get our toolbar!