Your One-Stop Source For
Music Lyrics
Bass and Guitar Tabs
and More...
Music Lyrics Bass and Guitar Tabs

 

The Tabs Are Below

Learn To Read Tab
Chords Handbook
Corrections & Additions
Get Official Tab
311 tabs @ 911Tabs

“Same Mistake Twice”

Performed by 311

Album: Evolver (comes out July 22nd 2003)

Tabbed out by: Jonathan Werness (JonathanWerness@netscape.net)

(I’m very sure about this tab)

 

Standard Tuning

 

Chorus:

|-------------------------------

|-------------------------------

|-------------------------------

|-3-3-3-3--6-6----5----5-3-6-5--

|-3-3-3-3--6-6----3----3-1-6-5--

|-1-1-1-1--4-4----3----3-1-4-3--

 

Verse: ( X is on the 3rd fret)

|--------

|--------

|--------

|-2------ -does that 17 times

|-2------

|-0-XXX—

 

Next part verse: ( X is on the 3rd fret)

|-------------------------------------------------------------------

|-------------------------------------------------------------------

|-------------------------------------------------------------------

|-2-3-4-5-----5-----5-----5-4-3-2-----2-----2-----2-3-4-5-----5-----

|-2-3-4-5-----5-----5-----5-4-3-2-----2-----2-----2-3-4-5-----5-----

|-0-1-2-3-XXX-3-XXX-3-XXX-3-2-1-0-XXX-0-XXX-0-XXX-0-1-2-3-XXX-3-XXX-

 

|----------------------

|----------------------

|----------------------

|-5-----5---4---5---4--

|-5-----5---2---3---4--

|-3-XXX-3---2---3---2—

 

Slower/Spacy Part: (All of your life….) Hold each note

|---------------------------------------------------------------------

|---------------------------------------------------------------------

|---------------------------------------------------------------------

|-5---2---3---3---5---2---3---3---2-----2-----2-----2-----2-----2-----

|-3---0---1---3---3---0---1---3---2-XXX-2-XXX-2-XXX-2-XXX-0-XXX-0-XXX-

|-3---0---1---1---3---0---1---1---0-XXX-0-XXX-0-XXX-0-XXX-0-XXX-0-XXX-

 

|---------------------------------------------------------------------

|---------------------------------------------------------------------

|---------------------------------------------------------------------

|-2-----2-----2-----2-----2-----2-----2-2-3-3-4-4-5-------------------

|-0-XXX-0-XXX-2-XXX-2-XXX-2-XXX-2-XXX-0-0-1-1-2-2-3-------------------

|-0-XXX-0-XXX-0-XXX-0-XXX-0-XXX-0-XXX-0-0-1-1-2-2-3-------------------

 

Song Structure:

Chorus X4

Verse X1

Next part verse X1

Chorus

Verse X1

Next part verse X1

Chorus X2 (excluding the last five notes on the 2nd time)

Slower/Spacy part X1

Chorus X4 (ending on the 7th note)

 

 

 

Come Original

 

 

Click here to return to my 311 tabs page

The Tablature is Copyright its respective owners.

Sign Up For My Newsletter
Subscribe | Unsubscribe

Site Map | Disclaimer | Privacy Policy | Media Kit | Submissions/Corrections

Website © 2000-2014 mattsmusicpage.com. All rights reserved.

Legal & DMCA: Matt's Music Page has been providing lyrics and tabs in a legal way, paying royalties each year to a few organizations. Then, all lyrics and tabs were removed from the site. Now, there's a new owner to the site, which purchased it August 26, 2014, and he is in negotiation to obtain licensing from BMI at the moment. If you have a specific DMCA request -- please do not hesitate to contact me via the contact button on top. I will do my very best to keep this site fully legal.

Get our toolbar!