Your One-Stop Source For
Music Lyrics
Bass and Guitar Tabs
and More...
Music Lyrics Bass and Guitar Tabs

 

The Tabs Are Below

Learn To Read Tab
Chords Handbook
Corrections & Additions
Get Official Tab
311 tabs @ 911Tabs

 

THIS IS THE TAB FOR "RANDOM" BY 311

 

 

INTRO/VERSES:

 

e ------------------------------------------------

B ------------------------------------------------

G ------------------------------------------------

D ---------------8-8-8-8--------------------------

A ----6-6-6-6----6-6-6-6--------------------------

E ----4-4-4-4----6-6-6-6-----1--2--1--2--1--2-----

 

 

 

BRIDGE BEFORE CHORUS:

 

 

e ------------------------------------------------

B ------------------------------------------------

G ------------------------------------------------

D ------------------------------------------------

A ----3-------------6-4-6-4----repeat-------------

E ------4--3-1-3-1--------------------------------

 

 

CHORUS:

 

B(x24400) E(22100x) F#(24400x)

 

HEY HEY ISN'T THAT RANDOM

 

 

 

 

ENDING:

 

 

F5 , E5 , F5 , E5 , F5 , E5 , F5 , F#5

 

end song with two F5's

 

 

AS ALWAYS, GET THE RHYTHM FROM THE CD.

 

PEACE

 

METH4LUNCH @ AOL.COM

Click here to return to my 311 tabs page

The Tablature is Copyright its respective owners.

Sign Up For My Newsletter
Subscribe | Unsubscribe

Site Map | Disclaimer | Privacy Policy | Media Kit | Submissions/Corrections

Website © 2000-2014 mattsmusicpage.com. All rights reserved.

Legal & DMCA: Matt's Music Page has been providing lyrics and tabs in a legal way, paying royalties each year to a few organizations. Then, all lyrics and tabs were removed from the site. Now, there's a new owner to the site, which purchased it August 26, 2014, and he is in negotiation to obtain licensing from BMI at the moment. If you have a specific DMCA request -- please do not hesitate to contact me via the contact button on top. I will do my very best to keep this site fully legal.

Get our toolbar!