Your One-Stop Source For
Music Lyrics
Bass and Guitar Tabs
and More...
Music Lyrics Bass and Guitar Tabs

 

The Tabs Are Below

Learn To Read Tab
Chords Handbook
Corrections & Additions
Get Official Tab
311 tabs @ 911Tabs

'Other Side of Things'

Performed by 311

From the album "Evolver" on Volcano Records

Music by: C. Sexton

Lyrics by: N. Hexum & D. Martinez

(c) 2003 Hydroponic Music BMI

 

Tabbed by Ricardo Wright-Ramos

E-Mail: kwa4ever@nycap.rr.com

 

Intro/Verse:

B/F# D/A E/B C/G B/F# D/A E/B C/G

e:-------------------------------------------------------------

B:-------------------------------------------------------------

G:-4----7----9----5----4----7----9----5------------------------

D:-4----7----9----5----4----7----9----5------------------------

A:-2----5----7----3----2----5----7----3------------------------

E:-2----5----7----3----2----5----7----3------------------------

 

Once in each verse there's a slight pause, the two chords are the same but the rhythm changes so watch for that.

 

Lead-in to Chorus:

B/F# A/E G5 F#5

e:-------------------------------------------------------------

B:-------------------------------------------------------------

G:--4----2-----------------------------------------------------

D:--4----2----5----4-------------------------------------------

A:--2----0----5----4-------------------------------------------

E:--2----0----3----2-------------------------------------------

 

 

Chorus:

B/F# E/B

e:-------------------------------------------------------------

B:-------------------------------------------------------------

G:-4--4--x--4/9--x--9--9----4--x--4/9--x--9--9-----------------

D:-4--4--x--4/9--x--9--9----4--x--4/9--x--9--9-----------------

A:-2--2--x--2/7--x--7--7----2--x--2/7--x--7--7-----------------

E:-2--2--x--2/7--x--7--7----2--x--2/7--x--7--7-----------------

 

D/A C#/G# B/F# D/A C#/G# B/F#

e:-------------------------------------------------------------

B:-------------------------------------------------------------

G:-7----6----4--x--x--4--4--7----6----4--x--x--4--(6)--4-------

D:-7----6----4--x--x--4--4--7----6----4--x--x--4--(6)--4-------

A:-5----4----2--x--x--2--2--5----4----2--x--x--2--(4)--2-------

E:-5----4----2--x--x--2--2--5----4----2--x--x--2--(4)--2-------

 

This entire thing repeats twice for each chorus (the C#/G# in parenthesis on the repeat leading into the bridge only), then:

 

Bridge:

A#5 F#5 C#5 G#5

e:-------------------------------------------------------------

B:-------------------------------------------------------------

G:--3--x--3--x--3--x-----------6--x--6--x--6--x----------------

D:--3--x--3--x--3--x--4--4--4--6--x--6--x--6--x--6--6--6-------

A:--1--x--1--x--1--x--4--4--4--4--x--4--x--4--x--6--6--6-------

E:--------------------2--2--2--------------------4--4--4-------

A#5 F#5 C#5 G#5 A#5 G#5

e:-------------------------------------------------------------

B:-------------------------------------------------------------

G:--3--x--3--x--3--x-----------6--x--6--x--6--x----------------

D:--3--x--3--x--3--x--4--4--4--6--x--6--x--6--x--6--8--6-------

A:--1--x--1--x--1--x--4--4--4--4--x--4--x--4--x--6--8--6-------

E:--------------------2--2--2--------------------4--6--4-------

A#5 F#5 C#5 G#5

e:-------------------------------------------------------------

B:-------------------------------------------------------------

G:--3--x--3--x--3--x-----------6--x--6--x--6--x----------------

D:--3--x--3--x--3--x--4--4--4--6--x--6--x--6--x--6--6--6-------

A:--1--x--1--x--1--x--4--4--4--4--x--4--x--4--x--6--6--6-------

E:--------------------2--2--2--------------------4--4--4-------

A#5 F#5 B/F# A/E G5 F#5

e:-------------------------------------------------------------

B:-------------------------------------------------------------

G:--3--x--3--x--3--x-----------4----2--------------------------

D:--3--x--3--x--3--x--4--4--4--4----2----5----4----------------

A:--1--x--1--x--1--x--4--4--4--2----0----5----4----------------

E:--------------------2--2--2--2----0----3----2----------------

 

Interlude:

Guitar 1 (Played 4 times):

N.C. F#5 G#5 F#5

e:-------------------------------------------------------------

B:-------------------------------------------------------------

G:-------------------------------------------------------------

D:---------------------------------------------(4--6--4)-------

A:-/6--4--1h2r1-1------------------------------(4--6--4)-------

E:----------------2-2-2---2-2-4---2h4r2--2-2---(2--4--2)-------

 

Guitar2 (Joins on the third and fourth time):

N.C. A#5 C5 A#5

e:-------------------------------------------------------------

B:-------------------------------------------------------------

G:---------------------------------------------(3--5--3)-------

D:-/5--3--0h1r0-0------------------------------(3--5--3)-------

A:----------------1-1-1---1-1-3---1h3r1-1-1----(1--3--1)-------

E:-------------------------------------------------------------

 

()'s replace the last portion on the 4th go around leading back into the final bridge

 

In the last bridge let all the power chords ring instead of scratching.

 

Outro:

B/F# A/E G5 F#5 B/F# A/E G5 F#5 D/A

e:-------------------------------------------------------------

B:-------------------------------------------------------------

G:--4----2--------------4----2--------------7~-----------------

D:--4----2----5----4----4----2----5----4----7~-----------------

A:--2----0----5----4----2----0----5----4----5~-----------------

E:--2----0----3----2----2----0----3----2----5~-----------------

 

Click here to return to my 311 tabs page

The Tablature is Copyright its respective owners.

Sign Up For My Newsletter
Subscribe | Unsubscribe

Site Map | Disclaimer | Privacy Policy | Media Kit | Submissions/Corrections

Website © 2000-2014 mattsmusicpage.com. All rights reserved.

Legal & DMCA: Matt's Music Page has been providing lyrics and tabs in a legal way, paying royalties each year to a few organizations. Then, all lyrics and tabs were removed from the site. Now, there's a new owner to the site, which purchased it August 26, 2014, and he is in negotiation to obtain licensing from BMI at the moment. If you have a specific DMCA request -- please do not hesitate to contact me via the contact button on top. I will do my very best to keep this site fully legal.

Get our toolbar!