Your One-Stop Source For
Music Lyrics
Bass and Guitar Tabs
and More...
Music Lyrics Bass and Guitar Tabs

 

The Tabs Are Below

Learn To Read Tab
Chords Handbook
Corrections & Additions
Get Official Tab
311 tabs @ 911Tabs

 

311

'Large in the Margin'

Performed By 311

From the album "Soundsystem" on Capricorn Records

Music by: ??

Lyrics by: ??

(c) 1999 Hydroponic Music BMI

---------------

Tabbed by: Adam Wood (adam311@hotmail.com)

Michael Slusarz (slusarz@chromosome.colorado.edu)

Additions/Corrections by: Fuzzytofu (Fuzzytofu@aol.com)

The 311 Guitar Archive -- http://chromosome.colorado.edu/311archive/

 

 

Intro:

======

C5/G

1:---

2:---

3:---

4:-5-

5:-3-

6:-3-

 

Verse 1:

=========

C5/G D5/A C5/G

1:----------------------

2:----------------------

3:----------------------

4:-5\\\\7-7-7--7--5-5-5-

5:-3\\\\5-5-5--5--3-3-3-

6:-3\\\\5-5-5--5--3-3-3-

|P.M.|

Bridge 1:

=========

[Guitar 1:]

F#5 G5

1:----------

2:----------

3:----------

4:-4------5-

5:-4------5-

6:-2------3-

 

[Guitar 2:]

(F#) (G)

1:-9-----9------10-----10----

2:---11----11------12-----12-

3:---------------------------

4:---------------------------

5:---------------------------

6:---------------------------

 

Verse 2:

========

D N.C.

1:-10-10-10-10--10---9--9--9--9-9-9-9-

2:-10-10-10-10--10---8--8--8--8-8-8-8-

3:------------------------------------

4:------------------------------------

5:------------------------------------

6:------------------------------------

 

Bridge 2:

=========

N.C.

1:-9---9---9-9---9---9----9---9---9-11-11-11-

2:-8---8---8-8---8---8---10--10--10-10-10-10-

3:-------------------------------------------

4:-------------------------------------------

5:-------------------------------------------

6:-------------------------------------------

 

Chorus:

=======

D E9

1:-10-10-10-10-10-10-10-10-(7-7-7-7-7-7-7-7)-

2:--7--7--7--7--7--7--7--7--7-7-7-7-7-7-7-7--

3:--7--7--7--7--7--7--7--7--7-7-7-7-7-7-7-7--

4:--7--7--7--7--7--7--7--7--6-6-6-6-6-6-6-6--

5:--------------------------7-7-7-7-7-7-7-7--

6:-------------------------------------------

| (x4) || (x4) |

 

Bb/D D

1:-//10-10-10-10-10-10-10-10-----------------

2:-//11-11-11-11-11-11-11-11--7-7-7-7-7-7-7--

3:-//10-10-10-10-10-10-10-10--7-7-7-7-7-7-7--

4:-//12-12-12-12-12-12-12-12--7-7-7-7-7-7-7--

5:---------------------------(5-5-5-5-5-5-5)-

6:-------------------------------------------

 

Verse 3:

========

G#5 G5 B5/F# F#5 G#5 F#5 B5/F# F#5

1:-------------------------------------------------------

2:-------------------------------------------------------

3:-------------------------------------------------------

4:-----------------4--4-4----------------------4--4-4----

5:-6--6-6--5--5-5--2--2-2--4---6--6-6--4--4-4--2--2-2--4-

6:-4--4-4--3--3-3--2--2-2--2---4--4-4--2--2-2--2--2-2--2-

 

 

Song Structure:

===============

---> Drum Intro (No Guitar)

---> Play Intro (x1):

---> Play Verse 1 (x8) over:

Uh!

Hey!

Check it out!

You got clout and you know that!

---> Play Verse 1 over:

Large in the margin

My drama unfolds behind closed doors

Told on the down-low

I believe that I'm so but really

I don't know

Maybe it's better, but I can't think so

Maybe it's better to fight

One never ever knows

Believe the rumors that grow like tumors

More fun than the truth

That we know

---> Play Bridge 1 (x1) over:

Trying

Too hard to reach a higher plane

We'll fuck you up

---> Play Verse 2 over:

When you least expect it

You think you're movin' close

So and suddenly you wrecked it

For all the sane the pain gains wisdom

As if you ain't had enough then you're in some

Prison of your own creation mental dilation

Look at what your facin' placin'

Play and never redirect it

'Cause in the end it's your own infection, yeah

---> Play Bridge 2 (x1)

---> Play Chorus (x1) over:

There's no way to avoid listening

Always end up listening

He's hoping the voices aren't too unkind

He's hoping the voices are benign

It's easier when you hear it

There's no reason to fear it

It's you, It's you

---> Play Verse 3 (x4) over:

You think they'll probably find you

Well then you're probably right

'Cause they'll come back to remind you for eternity

When you gave up the fight, yeah

Somehow they always will find you

The voices in the night and every night

Keep comin' back to remind you for eternity

Of when you gave up the fight

---> Play Verse (x4):

---> Play Chorus (x1) over:

There's no way to avoid listening

Always end up listening

He's hoping the voices aren't too unkind

He's hoping the voices are benign

It's easier when you hear it

There's no reason to fear it

It's you, It's you

 

 

 

Click here to return to my 311 tabs page

The Tablature is Copyright its respective owners.

Sign Up For My Newsletter
Subscribe | Unsubscribe

Site Map | Disclaimer | Privacy Policy | Media Kit | Submissions/Corrections

Website © 2000-2014 mattsmusicpage.com. All rights reserved.

Legal & DMCA: Matt's Music Page has been providing lyrics and tabs in a legal way, paying royalties each year to a few organizations. Then, all lyrics and tabs were removed from the site. Now, there's a new owner to the site, which purchased it August 26, 2014, and he is in negotiation to obtain licensing from BMI at the moment. If you have a specific DMCA request -- please do not hesitate to contact me via the contact button on top. I will do my very best to keep this site fully legal.

Get our toolbar!