Your One-Stop Source For
Music Lyrics
Bass and Guitar Tabs
and More...
Music Lyrics Bass and Guitar Tabs

 

The Tabs Are Below

Learn To Read Tab
Chords Handbook
Corrections & Additions
Get Official Tab
311 tabs @ 911Tabs

Ok here is 311's " I'll Be Here Awhile". It is in standard tuning.

 

E---0---0---0--0---0---0---2---0---2---3---3---2---0----------------------------

B---1---1---1--1---1---1---------------------------------3---1--0--------0---1-- play 3 times

G---2---2---2--2---2---2--------------------------------------------0h2--------- then...

 

E---0---0---0--0---0---0---2---0---2---3---3---2---0----3

B---1---1---1--1---1---1--------------------------------0

G---2---2---2--2---2---2--------------------------------0

D-------------------------------------------------------0

A-------------------------------------------------------2

E-------------------------------------------------------3

 

Then ska part 1

 

E---5--------------3

B---5--------------3

G---5--------------4 You figure out beat and how many times to hit each chord.

D---7--------------5 Each you hit around 8 times

A---7--------------5

E---5--------------3

 

Second ska part

 

E---7-------------2

B---8-------------2 Beat is same as above

G---9-------------2

D---9-------------4

A---7-------------4

B---7-------------2

 

Melodic part

 

E---3-------------3

B---5-------------3

G---4-------------4 Also same beat, but some of the chords are strummed

slowly.

D---5-------------5

A---3-------------5

E---3-------------3

 

Thats the song, it is the exact tab. I was just lazy and didnt want to write

hoe many times to hit the chords. If you know the song you'll know what to do

As for any mail... e-mail me at HKHAUN@aol.com or Deftones 311 Man@aol.com

 

 

Click here to return to my 311 tabs page

The Tablature is Copyright its respective owners.

Sign Up For My Newsletter
Subscribe | Unsubscribe

Site Map | Disclaimer | Privacy Policy | Media Kit | Submissions/Corrections

Website © 2000-2014 mattsmusicpage.com. All rights reserved.

Legal & DMCA: Matt's Music Page has been providing lyrics and tabs in a legal way, paying royalties each year to a few organizations. Then, all lyrics and tabs were removed from the site. Now, there's a new owner to the site, which purchased it August 26, 2014, and he is in negotiation to obtain licensing from BMI at the moment. If you have a specific DMCA request -- please do not hesitate to contact me via the contact button on top. I will do my very best to keep this site fully legal.

Get our toolbar!

 

VINTAGE SORRENTO MUSIC JEWELRY BOX
$45.0
VINTAGE SORRENTO MUSIC JEWELRY BOX picture


VINTAGE LACQUERED MUSIC BOX JAPAN
$25.99
VINTAGE LACQUERED MUSIC BOX JAPAN picture


Vintage Kehlsteinhaus Bavaria Germany Colorscope Cow Bell View Master Music Box
$8.99
Vintage Kehlsteinhaus Bavaria Germany Colorscope Cow Bell View Master Music Box picture


VINTAGE SCHMIDT Signed Collectible Musical Turning Clown
$9.99
VINTAGE  SCHMIDT Signed Collectible Musical Turning Clown picture


Vintage - Linen - Postcard - Stage - Radio City Music Hall - New York City
$3.75
Vintage - Linen - Postcard - Stage - Radio City Music Hall - New York City   picture