Your One-Stop Source For
Music Lyrics
Bass and Guitar Tabs
and More...
Music Lyrics Bass and Guitar Tabs

 

The Tabs Are Below

Learn To Read Tab
Chords Handbook
Corrections & Additions
Get Official Tab
311 tabs @ 911Tabs

Band: 311

Song: Hostile Apostle

X1

------13------------------15-12-12h13h12-------13-----------------15-b17b-15-

---12----13------------13-------------------12----13-----------13-----------------

-12----------14-----13-------------------12----------14-----13--------------------

----------------15--------------------------------------15---------------------------

---------------------------------------------------------------------------------------

---------------------------------------------------------------------------------------

 

-------13-15----13--------15-12-12h13h12-------13-15----13--------15-b17b-15-

----12-------13--------13-------------------12-------13--------13---------------------

-12-----------------13-------------------12-----------------13--------------------------

-------------------------------------------------------------------------------------------

-------------------------------------------------------------------------------------------

-------------------------------------------------------------------------------------------

 

 

X4

------------------------------------------------------------------------------------

------------------------------------------------------------------------------------

------------------------------------------------------------------------------------

------------------------------------------------------------------------------------

------------------------------------------------------------------------------------

-3---3-3-3---3-3-3---3-3-3--3-3---3---2---2-2-2---2-2-2---2-2-2--2-2---2-

-1---1-1-1---1-1-1---1-1-1--1-1-5-1---0---0-0-0---0-0-0---0-0-0--0-0-4-0-

 

 

X2

--------------------------------------------------------

--------------------------------------------------------

--------------------------------------------------------

---------3-3-----------3-3--------3-3--------3-3-----

--------------------------------------------------------

--1-1-1------1-1-1-1------1-1-1-----1-1-1----------

 

---------------------------------------------------------

---------------------------------------------------------

---------------------------------------------------------

---------2-2-----------2-2---------2-2--------2-2-----

---------------------------------------------------------

--0-0-0------0-0-0-0------0-0-0------0-0-0---------

 

 

 

 

X1

--------------------------------------------

--------------------------------------------

--4----2----5----4----4----2----5----4---

--5----3----6----5----5----3----6----5---

--5----3----6----5----5----3----6----5---

--3----1----4----3----3----1----4----3---

 

----------------------------------------------------------------------------------

----------------------------------------------------------------------------------

----------------------------------------------------------------------------------

----------------------------------------------------------------------------------

-5-5-5-3-3-3-3-3-6-6-6-5-5-5-5-5---5-5-5-3-3-3-3-3-6-6-6-5-5-5-5-5---

-3-3-3-1-1-1-1-1-4-4-4-3-3-3-3-3---3-3-3-1-1-1-1-1-4-4-4-3-3-3-3-3---

 

X2

--------------------------------------------------------

--------------------------------------------------------

--------------------------------------------------------

---------3-3-----------3-3--------3-3--------3-3-----

--------------------------------------------------------

--1-1-1------1-1-1-1------1-1-1-----1-1-1----------

 

---------------------------------------------------------

---------------------------------------------------------

---------------------------------------------------------

---------2-2-----------2-2---------2-2--------2-2-----

---------------------------------------------------------

--0-0-0------0-0-0-0------0-0-0------0-0-0---------

 

X1

--------------------------------------------

--------------------------------------------

--4----2----5----4----4----2----5----4---

--5----3----6----5----5----3----6----5---

--5----3----6----5----5----3----6----5---

--3----1----4----3----3----1----4----3---

 

----------------------------------------------------------------------------------

----------------------------------------------------------------------------------

----------------------------------------------------------------------------------

----------------------------------------------------------------------------------

-5-5-5-3-3-3-3-3-6-6-6-5-5-5-5-5---5-5-5-3-3-3-3-3-6-6-6-5-5-5-5-5---

-3-3-3-1-1-1-1-1-4-4-4-3-3-3-3-3---3-3-3-1-1-1-1-1-4-4-4-3-3-3-3-3---

X4

------------------------------------------------------------

------------------------------------------------------------

------------------------------------------------------------

------------------------------------------------------------

-------2-5--4--4--4--4--4--4--4--4---4-0---0----------

--0-3----------------------------------------3---3-2-3---

 

X4

------------------------------------------------

------------------------------------------------

------------------------------------------------

------------------------------------------------

-------2-5--4--4--4---------------------------

--0-3------------------5---5-3-2-3-2-0-2----

 

 

X1

------13------------------15-12-12h13h12-------13-----------------15-b17b-15-

---12----13------------13-------------------12----13-----------13-----------------

-12----------14-----13-------------------12----------14-----13--------------------

----------------15--------------------------------------15---------------------------

---------------------------------------------------------------------------------------

---------------------------------------------------------------------------------------

 

-------13-15----13--------15-12-12h13h12-------13-15----13--------15-b17b-----

----12-------13--------13-------------------12-------13--------13---------------------

-12-----------------13-------------------12-----------------13--------------------------

-------------------------------------------------------------------------------------------

-------------------------------------------------------------------------------------------

-------------------------------------------------------------------------------------------

 

 

 

Click here to return to my 311 tabs page

The Tablature is Copyright its respective owners.

Sign Up For My Newsletter
Subscribe | Unsubscribe

Site Map | Disclaimer | Privacy Policy | Media Kit | Submissions/Corrections

Website © 2000-2014 mattsmusicpage.com. All rights reserved.

Legal & DMCA: Matt's Music Page has been providing lyrics and tabs in a legal way, paying royalties each year to a few organizations. Then, all lyrics and tabs were removed from the site. Now, there's a new owner to the site, which purchased it August 26, 2014, and he is in negotiation to obtain licensing from BMI at the moment. If you have a specific DMCA request -- please do not hesitate to contact me via the contact button on top. I will do my very best to keep this site fully legal.

Get our toolbar!

 

Starbucks You Are Here Coffee Mug/Cup KENTUCKY - Horses, Banjo, Blue, White
$19.99
Starbucks You Are Here Coffee Mug/Cup KENTUCKY - Horses, Banjo, Blue, White picture


KNOWLES ROCKWELL HERITAGE "THE BANJO PLAYER" FIRST EDITION 1989 PLATE COA
$5.99
KNOWLES ROCKWELL HERITAGE


Vintage Postcard 1981 Disney World Banjo Kings Main Street USA 1981 Postmark
$4.99
 Vintage Postcard 1981 Disney World Banjo Kings Main Street USA 1981 Postmark picture


Banjo Barometer With Thermometer Hygrometer 490mm
$84.76
Banjo Barometer With Thermometer Hygrometer 490mm picture


ANTIQUE JAPANESE NIPPON FIGURINE SET OF 3 WOMEN GEISHA PLAYING DRUM BANJO FAN
$24.0
ANTIQUE JAPANESE NIPPON FIGURINE SET OF 3 WOMEN GEISHA PLAYING DRUM BANJO FAN picture