Your One-Stop Source For
Music Lyrics
Bass and Guitar Tabs
and More...
Music Lyrics Bass and Guitar Tabs

 

The Tabs Are Below

Learn To Read Tab
Chords Handbook
Corrections & Additions
Get Official Tab
311 tabs @ 911Tabs

 

311-Hive

 

Music by: Chad Sexton and Nicholas Hexum

Tabed by: Ibanez888

 

Tip: Play E with just the 1st finger because it makes

it easier to get to other chords.

 

x = mute

 

INTRO RIFF:

Just keep playing B gently

 

RIFF 1:

 

E F# E Bb Bb

E|--------------------------------|

B|--------------------------------|

G|-----------3--x--3--------------|

D|--2--4--2--3--x--3--x--repeat---|

A|--2--4--2--1--x--1--x-----------|

E|--0--2--0-----------x-----------|

 

RIFF 2:

 

E F# G A G F# F# B

E|------------------------------------|

B|------------------------------------|

G|------------------------4-----------|

D|--2--4--5--7--5--4--4---4--repeat---|

A|--2--4--5--7--5--4--4---2-----------|

E|--0--2--3--5--3--2--2---------------|

 

RIFF 3:

 

B B B B D B D

E|-------------------------------------|

B|-------------------------------------|

G|-------------------------------------|

D|--9--9--9--9--x--12--9--12--repeat---|

A|--9--9--9--9--x--12--9--12-----------|

E|--7--7--7--7--x--10--7--10-----------|

 

RIFF 4:

 

E|--------------------|

B|--------------------|

G|--------------------|

D|--2--4--5--7--8--9--|

A|--2--4--5--7--8--9--|

E|--0--2--3--5--6--7--|

 

Format of Song(plays 3 times):

Intro

Riff 1

Riff 2

Riff 3

Riff 4

 

Well, there it is. If you have any questions, comments,

or corrections please send them to me at Ibanez888@aol.com

Also send any requests for songs to be tabed i know alot.

Click here to return to my 311 tabs page

The Tablature is Copyright its respective owners.

Sign Up For My Newsletter
Subscribe | Unsubscribe

Site Map | Disclaimer | Privacy Policy | Media Kit | Submissions/Corrections

Website © 2000-2014 mattsmusicpage.com. All rights reserved.

Legal & DMCA: Matt's Music Page has been providing lyrics and tabs in a legal way, paying royalties each year to a few organizations. Then, all lyrics and tabs were removed from the site. Now, there's a new owner to the site, which purchased it August 26, 2014, and he is in negotiation to obtain licensing from BMI at the moment. If you have a specific DMCA request -- please do not hesitate to contact me via the contact button on top. I will do my very best to keep this site fully legal.

Get our toolbar!