Your One-Stop Source For
Music Lyrics
Bass and Guitar Tabs
and More...
Music Lyrics Bass and Guitar Tabs

 

The Tabs Are Below

Learn To Read Tab
Chords Handbook
Corrections & Additions
Get Official Tab
311 tabs @ 911Tabs

 

Part of "Fat Chance"

 

 

E :----------------|---------------- 2|-|----|----------------|

B :----------------|---------------- ||-|----|----------------|

G :------2---2--4--|----------------*||-|----|-2---2--4-------|

D :4---4-2-4-2--4--|2---2-6---7--6--*||4|---4|-2-4-2--4--2---2|

A :4---4-0-4-0--2--|2---2-6---7--6-- ||4|---4|-0-4-0--2--2---2|

E :2---2---2-------|0---0-4-0-5--4-- ||2|---2|---2-------0---0|

 

E :--------------|--|---------------| 17-p14--------------------------- 9|

B :--------------|--|---------------| --------17-p14------------------- ||

G :--------------|--|---------------|*----------------16-16-16-16-p14--*||

D :--6-----7---6-|--|---------------|*---------------------------------*||

A :--6-----7---6-|--|---------------| --------------------------------- ||

E :--4--0--5---4-|--|---------------| --------------------------------- ||

 

Click here to return to my 311 tabs page

The Tablature is Copyright its respective owners.

Sign Up For My Newsletter
Subscribe | Unsubscribe

Site Map | Disclaimer | Privacy Policy | Media Kit | Submissions/Corrections

Website © 2000-2014 mattsmusicpage.com. All rights reserved.

Legal & DMCA: Matt's Music Page has been providing lyrics and tabs in a legal way, paying royalties each year to a few organizations. Then, all lyrics and tabs were removed from the site. Now, there's a new owner to the site, which purchased it August 26, 2014, and he is in negotiation to obtain licensing from BMI at the moment. If you have a specific DMCA request -- please do not hesitate to contact me via the contact button on top. I will do my very best to keep this site fully legal.

Get our toolbar!