Your One-Stop Source For
Music Lyrics
Bass and Guitar Tabs
and More...
Music Lyrics Bass and Guitar Tabs

 

The Tabs Are Below

Learn To Read Tab
Chords Handbook
Corrections & Additions
Get Official Tab
311 tabs @ 911Tabs

 

311

'Evolution'

Performed by 311

From the album "Soundsystem" on Capricorn Records

Music by: C. Sexton & N. Hexum

Lyrics by: N. Hexum & D. Martinez

(c) 1999 Hydroponic Music BMI

---------------

Tabbed by: Adam Rechkemmer (KWSROK@aol.com)

Matt Binkley (binkldjm@icx.net)

Mike Saffert (ComeOrgnal311@aol.com)

Additions/Corrections by: Michael Slusarz (slusarz@chromosome.colorado.edu)

The 311 Guitar Archive -- http://chromosome.colorado.edu/311archive/

 

 

Intro/Verse A:

==============

N.C.

1:----------------------------

2:----------------------------

3:----------------------------

4:-11-11-11-10-9--------------

5:----------------7-7-7-7h9p7-

6:----------------------------

 

 

Verse B (w/Heavy Distortion):

=============================

N.C.

1:-------------

2:-------------

3:-------------

4:-------------

5:-------------

6:-9///--3h4-0-

 

 

Chorus A:

=========

N.C.

1:-------------------------------

2:-------------------------------

3:-------------------------------

4:-------------------------------

5:-------------------------------

6:--7--5-4-5-4-5--7--5-4-5-4-5-4-

 

 

Chorus B:

=========

G5 A#5 E5 F5

1:-------------------------------------

2:-------------------------------------

3:-------------------------------------

4:-------------------------------------

5:-5-5-5---8-8-8---2-2-2---2-2-2-3-3-3-

6:-3-3-3---6-6-6---0-0-0---0-0-0-1-1-1-

 

 

Bridge:

=======

N.C.

1:-7-4-2-7-7-7-4-2-4-7-11-9-7-2-4-2-4-7-4-2-

2:-7-4-2-7-7-7-4-2-4-7-11-9-7-2-4-2-4-7-4-2-

3:------------------------------------------

4:------------------------------------------

5:------------------------------------------

6:------------------------------------------

 

1:-7-4-2-7-7-7-4-2-4-7-11-9-7-

2:-7-4-2-7-7-7-4-2-4-7-11-9-7-

3:----------------------------

4:----------------------------

5:----------------------------

6:----------------------------

 

 

Lyrics/Song Structure:

======================

 

[Not yet available.]

 

Click here to return to my 311 tabs page

The Tablature is Copyright its respective owners.

Sign Up For My Newsletter
Subscribe | Unsubscribe

Site Map | Disclaimer | Privacy Policy | Media Kit | Submissions/Corrections

Website © 2000-2014 mattsmusicpage.com. All rights reserved.

Legal & DMCA: Matt's Music Page has been providing lyrics and tabs in a legal way, paying royalties each year to a few organizations. Then, all lyrics and tabs were removed from the site. Now, there's a new owner to the site, which purchased it August 26, 2014, and he is in negotiation to obtain licensing from BMI at the moment. If you have a specific DMCA request -- please do not hesitate to contact me via the contact button on top. I will do my very best to keep this site fully legal.

Get our toolbar!