Your One-Stop Source For
Music Lyrics
Bass and Guitar Tabs
and More...
>Music Lyrics Bass and Guitar Tabs

 

The Tabs Are Below

Learn To Read Tab
Chords Handbook
Corrections & Additions
Get Official Tab
311 tabs @ 911Tabs

 

Don't Stay Home

by 311

tabbed by ikswejahan@aol.com (JILL)

 

Riff A:

G Bm

e--------------------------------

b------------------3-3-3-3-3-3-3-

g-4-4-4-4-4-4-4-4--4-4-4-4-4-4-4-

d-5-5-5-5-5-5-5-5--4-4-4-4-4-4-4-

a-5-5-5-5-5-5-5-5--2-2-2-2-2-2-2-

E-3-3-3-3-3-3-3-3----------------

 

Riff B:

G E

e--------------------

b--------------------

g-4-4-4-4-4-4-4-4--1-

d-5-5-5-5-5-5-5-5--2-

a-5-5-5-5-5-5-5-5--2-

E-3-3-3-3-3-3-3-3--0-

 

Chorus A:

E A B A

1:-------------------------------------------------

2:-----------------2-----2-----4-----4-----2-----2-

3:-----1-----1-----2-----2-----4-----4-----2-----2-

4:-----2-----2-2-2-2-2-2-2-4-4-4-4-4-4-2-2-2-2-2-2-

5:-2-2-2-2-2-2-0-0-0-0-0-0-2-2-2-2-2-2-0-0-0-0-0-0-

6:-0-0-0-0-0-0-------------------------------------

 

Chorus B:

E A B

1:-------------------------------------------------

2:-----------------2-----2-----4-----4-----4-----4-

3:-----1-----1-----2-----2-----4-----4-----4-----4-

4:-----2-----2-2-2-2-2-2-2-4-4-4-4-4-4-4-4-4-4-4-4-

5:-2-2-2-2-2-2-0-0-0-0-0-0-2-2-2-2-2-2-2-2-4-2-2-2-

6:-0-0-0-0-0-0-------------------------------------

 

Bridge A:

E5

1:------------------

2:------------------

3:------------------

4:-2----2----2----2-

5:-2----2----2----2-

6:-0----0----0----0-

 

Bridge B:

N.C.

1:-------------------------

2:-------------------------

3:-------------------------

4:---------------------1-2-

5:---2-0---2-1-0-2-4-2-----

6:-0-----4-----------------

 

That's all there is to it. Its easy to play. Hope ya like it. Mail me if you have requests or if you wanna sign up for my tab mailing list.

 

Click here to return to my 311 tabs page

The Tablature is Copyright its respective owners.

Sign Up For My Newsletter
Subscribe | Unsubscribe

Site Map | Disclaimer | Privacy Policy | Media Kit | Submissions/Corrections

Website © 2000-2014 mattsmusicpage.com. All rights reserved.

Legal & DMCA: Matt's Music Page has been providing lyrics and tabs in a legal way, paying royalties each year to a few organizations. Then, all lyrics and tabs were removed from the site. Now, there's a new owner to the site, which purchased it August 26, 2014, and he is in negotiation to obtain licensing from BMI at the moment. If you have a specific DMCA request -- please do not hesitate to contact me via the contact button on top. I will do my very best to keep this site fully legal.

Get our toolbar!

 

White printed signature guitar pick plectrum Pin Badge Lapel Tie Brian J AC
$5.24
White printed signature guitar pick plectrum Pin Badge Lapel Tie Brian J AC picture


ELECTRO HARMONIX SOVTEK NEW SENSOR GUITAR AMP TUBE PEDAL CATALOG LOT VINTAGE
$5.99
ELECTRO HARMONIX SOVTEK NEW SENSOR GUITAR AMP TUBE PEDAL CATALOG LOT VINTAGE picture


FRYER EFFECT BRIAN MAY BOOSTER PEDAL MAKER BUMPER / GUITAR CASE STICKER
$3.99
FRYER EFFECT BRIAN MAY BOOSTER PEDAL MAKER BUMPER / GUITAR CASE STICKER  picture


Radial EFFECT PEDAL BUMPER OR GUITAR CASE STICKER free USA SHIPPING
$2.99
Radial  EFFECT PEDAL  BUMPER OR GUITAR CASE STICKER free USA SHIPPING  picture


Famous Black Print on white guitar pick plectrum Pin Badge Lapel Tie Slip
$5.24
Famous Black Print on white guitar pick plectrum Pin Badge Lapel Tie Slip picture