Your One-Stop Source For
Music Lyrics
Bass and Guitar Tabs
and More...
Music Lyrics Bass and Guitar Tabs

 

The Tabs Are Below

Learn To Read Tab
Chords Handbook
Corrections & Additions
Get Official Tab
311 tabs @ 911Tabs

 

311

'Come Original'

Performed by 311

From the album "Soundsystem" on Capricorn Records

Music by: N. Hexum & A. Wills

Lyrics by: N. Hexum & A. Wills

(c) 1999 Hydroponic Music BMI

---------------

Tabbed by: Evin Gibson (phoney311@aol.com)

Additions/Corrections by: FlopyPikle (FlopyPikle@aol.com)

Michael Slusarz (slusarz@chromosome.colorado.edu)

Adam Wood (Adam311@hotmail.com)

Jonathan Shoemaker (DubaUB69@aol.com)

Steve Davis (davisgh@erols.com)

DaProney (cabana311@yahoo.com)

Pat (rulon1@andonet.com)

Kyle Peacock (soul_doubt_nofx@yahoo.com)

Lyric help by: Paul Barany (graffix311@hotmail.com)

The 311 Guitar Archive -- http://chromosome.colorado.edu/311archive/

 

 

Intro (w/Distortion):

=====================

D5/A Asus4 N.C. Asus4 D5/A N.C.

1:-------5-----------------------//5-5-5-5---5----------------------

2:-------5-----------------------//5-5-5-5---5----------------------

3:-7-7---7----7-6----------------//7-7-7-7---7----7-6---------------

4:-7-7---7--------9-7-6-7-6------//7-7-7-7---7--------9-7-6-7-6-----

5:-5-5----------------------9-7--------------5------------------9-7-

6:-5-5---------------------------------------5----------------------

 

Riff 1 (w/Distortion):

======================

Asus4 N.C. Asus4 N.C.

1:(5-5-5-5)-5-----------------------(5-5-5-5)--5---------------------

2:(5-5-5-5)-5-----------------------(5-5-5-5)--5---------------------

3:-7-7-7-7--7---7-6------------------7-7-7-7---7---7-6---------------

4:-7-7-7-7--7-------9-7-6-7-6--------7-7-7-7---7-------9-7-6-----6-9-

5:-5-5-5-5--5-----------------9-7----5-5-5-5---5-------------7-9-----

6:-5-5-5-5--5------------------------5-5-5-5---5---------------------

 

Chorus A (w/Distortion):

========================

G5 B5 A5 Ab5

1:----------------------------------------------

2:----------------------------------------------

3:----------------------------------------------

4:----------------------------------------------

5:-5-5--5-5-5/-9-9--9-9-9--7-7--7-7-7-7-7-6-6-6-

6:-3-3--3-3-3/-7-7--7-7-7--5-5--5-5-5-5-5-4-4-4-

 

Chorus B (w/Distortion):

========================

G5 B5 A5 Ab5

1:-------------------------------------------------

2:-------------------------------------------------

3:-------------------------------------------------

4:-------------------------------------------------

5:-5-5--5-5-5//-9-9-9--9-9-9---7-7-7--7-7-7--6-6-6-

6:-3-3--3-3-3//-7-7-7--7-7-7---5-5-5--5-5-5--4-4-4-

 

G5 B5 A5 G5 F#5 E5

1:-----------------------------------------------------------

2:-----------------------------------------------------------

3:-----------------------------------------------------------

4:-----------------------------------------------2-2---2-2-2-

5:-5-5--5-5-5//-9-9--9-9-9---9-9--7-7--5-5--4-4--2-2---2-2-2-

6:-3-3--3-3-3//-7-7--7-7-7---7-7--5-5--3-3--2-2--0-0---0-0-0-

 

Riff 2 (w/Distortion):

======================

E5

1:--------------

2:--------------

3:--------------

4:-2--2----2--2-

5:-2--2----2--2-

6:-0--0----0--0-

 

Riff 3 (w/Distortion):

======================

E5

1:------------------------

2:------------------------

3:------------------------

4:-2--2----2--2---2-2-2-2-

5:-2--2----2--2---2-2-2-2-

6:-0--0----0--0---0-0-0-0-

|-----| Don't play last time

 

Bridge 1 (w/Distortion):

========================

[Guitar 1:]

(All Power (5th) Chords)

E B D A G B F# A

1:------------------------

2:------------------------

3:-------2----------------

4:----4--0-2------4-----2-

5:-2--2----0---5--2--4--0-

6:-0-----------3-----2----

 

[Guitar 2:]

N.C.

1:------------------------

2:------------------------

3:----4--7--------4-----2-

4:-2--------7--5-----4----

5:------------------------

6:------------------------

 

Bridge 2 (Clean, w/Reverb & Chorus):

====================================

G Bm Am G#

1:-3----7--5----4-

2:-3----7--5----4-

3:-4----7--5----5-

4:----------------

5:----------------

6:----------------

 

 

Song Structure:

===============

---> Play Intro (x1)

---> Play Riff 1 (x1) over:

You got to

You got to

---> Play Chorus A over:

Come original you got to come original

All entertainers come original

You got to come original you got to come original

All entertainers

Hear why

To come original it ain't nothin' strange

You got to represent you got come full range

Full range of emotion full range of styles

When you come to town you'll have them comin' for miles

Come original you got to come original

All entertainers come original

You got to come original you got to come original

All entertainers

Hear why

---> Play Chorus B over:

Black Eyed Peas they comin' full range and

NOFX they comin' full range and

Roni Size he comin' full range

The one Mr. Vegas you know it ain't easy

---> No guitar

---> Play Riff 2 over:

A warning to the crews out there who think they're hot

If you're not original rockers you will get shot

Down by the kids neglectin' your art, the stuff you did

Eventually it get so bad puts you to bed

---> Play Riff 3 over:

Cuz when the lightning flashes sweet electricity

All the world then stands revealed with the clarity

Of raw voltage, briefly we see and the hope is

You'll be able to tell just what dope is

---> Play Chorus A over:

Come original you got to come original

All entertainers come original

You got to come original you got to come original

All entertainers

Hear why

---> Play Chorus B over:

Funk slap bass mixed with the dancehall and

Hip-hop beats and punk guitar and

Deadly on the mic is the one SA

The name is 311 and you know it ain't easy

---> No guitar

---> Play Riff 3 over:

This is not a test there's no time to mope

How you gonna cope with radioactive isotope

And boss dj illness upon you now quickly

Infecting you fast upon the airwaves

This message brought to you by the so large system

Activate and attune yourself with meditation

And green plants they've got mad life they're sentient

They're beautiful as you and they like to dance

---> Play Bridge 1 (x4)

---> Play Riff 3 over:

Everything we do we gotta come original

Put your hand up in the air and prepare for battle

Sit upon the rhythm like a tire upon a rim

We do it non-stop and then we do it again

Some a them whine and some a them bitch

They can not do it never switch

Comin' up from the heart and

Delivered with a wild pitch

Sit up on top the rhythm like a wild stallion

This is the ruling system

---> Play Bridge 2 (x4)

---> Play Chorus A over:

Come original you got to come original

All entertainers come original

You got to come original you got to come original

All entertainers come original

You got to come original you got to come original

All entertainers come original

You got to come original you got to come original

All entertainers

---> No guitar over:

Come original

 

Click here to return to my 311 tabs page

The Tablature is Copyright its respective owners.

Sign Up For My Newsletter
Subscribe | Unsubscribe

Site Map | Disclaimer | Privacy Policy | Media Kit | Submissions/Corrections

Website © 2000-2014 mattsmusicpage.com. All rights reserved.

Legal & DMCA: Matt's Music Page has been providing lyrics and tabs in a legal way, paying royalties each year to a few organizations. Then, all lyrics and tabs were removed from the site. Now, there's a new owner to the site, which purchased it August 26, 2014, and he is in negotiation to obtain licensing from BMI at the moment. If you have a specific DMCA request -- please do not hesitate to contact me via the contact button on top. I will do my very best to keep this site fully legal.

Get our toolbar!

 

BRAND NEW KEY OF C HOHNER MINI HARMONICA HARP KEYRING KEYCHAIN KEY RING CHAIN
$8.21
BRAND NEW KEY OF C HOHNER MINI HARMONICA HARP KEYRING KEYCHAIN KEY RING CHAIN picture


RISING SONS BAND *2X3 FRIDGE MAGNET* VOCALS GUITAR MANDOLIN DOBRO HARMONICA SONG
$3.99
RISING SONS BAND *2X3 FRIDGE MAGNET* VOCALS GUITAR MANDOLIN DOBRO HARMONICA SONG picture


Vtg Christmas Angel Baby Girl W Harmonica Boy W Book SET OF 2 W GOLD WINGS
$125.0
Vtg Christmas Angel Baby Girl W Harmonica Boy W Book SET OF 2 W GOLD WINGS  picture


Beautiful Hand Carved Jewelry Trinket Jewelry Box Harmonica Case Bone And Brass
$14.5
Beautiful Hand Carved Jewelry Trinket Jewelry Box Harmonica Case Bone And Brass picture


BRAND NEW* HOHNER BOB DYLAN SIGNATURE LIMITED EDITION HARMONICA COLLECTORS ITEM
$140.19
BRAND NEW* HOHNER BOB DYLAN SIGNATURE LIMITED EDITION HARMONICA COLLECTORS ITEM picture