Your One-Stop Source For
Music Lyrics
Bass and Guitar Tabs
and More...
Music Lyrics Bass and Guitar Tabs

 

The Tabs Are Below

Learn To Read Tab
Chords Handbook
Corrections & Additions
Get Official Tab
311 tabs @ 911Tabs

 

311

'Can't Fade Me'

Performed by 311

From the album "Soundsystem" on Capricorn Records

Music by: N. Hexum

Lyrics by: N. Hexum & D. Martinez

(c) 1999 Hydroponic Music BMI

---------------

Tabbed by: Michael Slusarz (slusarz@chromosome.colorado.edu)

The 311 Guitar Archive -- http://chromosome.colorado.edu/311archive/

 

 

Intro:

======

N.C.

1:-------------------------------

2:-------------------------------

3:-------------------------------

4:-------------------------------

5:-5-7-5-7-5-7-5-7-5-5-5---7-7-7-

6:-------------------------------

 

Verse 1:

========

N.C.

1:----------------------------------------------

2:----------------------------------------------

3:----------------------------------------------

4:----------------------------------------------

5:-(9p)7-7-5-7-5-5-7-5------9p7-5-7-5-5-7-5---5-

6:---------------------7--------------------7---

* Don't play note in ()'s first time through.

 

Verse 2:

========

(B5) N.C.

1:-----...------------------------------

2:-----...------------------------------

3:-----...------------------------------

4:-(9)-...------------------------------

5:-(9)-...------------------------------

6:-(7)-...-7-5-7-5-7-5-7-5-5-5-5-5-5--5-

Palm

Muted

 

Bridge 1:

=========

N.C.

1:------------------------------------------

2:------------------------------------------

3:--------------------------------------9---

4:-9---9-11-12-11-9--11-9--9-11-12-11-9---9-

5:------------------------------------------

6:------------------------------------------

 

N.C.

1:-------------------------------------------------------

2:-------------------------------------------------------

3:-------------------------------------------------------

4:-9---9-11-12-11----12-11-9--------9-11-9-11-(11)-------

5:----------------11-----------11-9----------------7-7-7-

6:-------------------------------------------------------

 

Bridge 2:

=========

G#m7 F#m7 G#m7 F#m7 N.C.

1:-14---12---14---12-----------------------------------------

2:-12---10---12---10---12--12-14-15-14-12--12--12-14-15-10-9-

3:-13---11---13---11---13--13-14-16-14-13--13--13-14-16-11-9-

4:-----------------------------------------------------------

5:-----------------------------------------------------------

6:-----------------------------------------------------------

 

Bridge 3:

=========

(E5) E5

1:-----...-----

2:-----...-----

3:-----...-----

4:-(2)-...-2-2-

5:-(2)-...-2-2-

6:-(0)-...-0-0-

Palm

Muted

 

Ending:

=======

N.C.

1:--------------------------------------------------

2:--------------------------------------------------

3:--------------------------------------------------

4:--------------------------------------------------

5:--------------------------------------------------

6:-0-2-2-3-3-3-0-2-2-3-3-3-0-2-2-3-3-3--3-3-3-2h3p2-

 

1:--------------------------------------------------------------------------

2:--------------------------------------------------------------------------

3:--------------------------------------------------------------------------

4:--------------------------------------------------------------------------

5:--------------------------------------------------------------------------

6:-12-14-14-15-15-15-12-14-14-15-15-15-12-14-14-15-15-15--15-15-15-14h15p14-

 

 

Lyrics/Song Structure:

======================

---> Play Intro (x1)

---> Play Verse 1 over:

SA:

We bust the sound

The kids all gather round

Nick:

And what's comin' from their radios

They all turn down

SA:

The creativeness

We are scientists

Nick:

Move em with soul

Move em with this

---> Play Verse 2 over:

SA:

When the bass kicks

We get intimate

Nick:

With the music and the people

Yeah they're into it

SA:

Takin' off cruisin through the air

Both:

The sound is aerodynmaic

Let me take you there

---> Play Bridge 1 (x1)

---> Play Verse A over:

SA:

I am a cool and mellow man

Nick:

Always got a plan

SA:

Copin' out problems every time I can

Nick:

I'd like to be known as a great communicator

SA:

If you got beef don't save it for later

---> Play Verse B over:

Nick:

I battle evil weekly monthly yearly

But every step I take the devil stays near me

SA:

Otherwise maintain on the globe

Both:

Just another space trippin' vato

---> Play Bridge 1 (x1)

---> Play Bridge 2 over:

SA:

Massive yang and yin on this earth we spin

Sometimes I gotta center find out who I am

Nick:

I chill out I let in the wind

SA:

I gotta feel the pulse of the planet on my skin

Both:

I got news for ya it ain't nothin nice

We all got demons we all gotta vice

The struggle never ends

To keep it in check

But I never stop trying

To make the trek whadup

---> Play Bridge 3

---> Play Ending over:

Nick:

Which one is it who ya gonna believe

Undivided in my material being

Undivided life

You can't fade me

Desperate the cling I make to positvity

Stay gettin it on til the doubt is gone

If you could be dissuaded you were dead all along

Like what's up now you can't fade me

Still in that same old trade of positivity

 

 

 

Click here to return to my 311 tabs page

The Tablature is Copyright its respective owners.

Sign Up For My Newsletter
Subscribe | Unsubscribe

Site Map | Disclaimer | Privacy Policy | Media Kit | Submissions/Corrections

Website © 2000-2014 mattsmusicpage.com. All rights reserved.

Legal & DMCA: Matt's Music Page has been providing lyrics and tabs in a legal way, paying royalties each year to a few organizations. Then, all lyrics and tabs were removed from the site. Now, there's a new owner to the site, which purchased it August 26, 2014, and he is in negotiation to obtain licensing from BMI at the moment. If you have a specific DMCA request -- please do not hesitate to contact me via the contact button on top. I will do my very best to keep this site fully legal.

Get our toolbar!

 

Starbucks You Are Here Coffee Mug/Cup KENTUCKY - Horses, Banjo, Blue, White
$19.99
Starbucks You Are Here Coffee Mug/Cup KENTUCKY - Horses, Banjo, Blue, White picture


KNOWLES ROCKWELL HERITAGE "THE BANJO PLAYER" FIRST EDITION 1989 PLATE COA
$5.99
KNOWLES ROCKWELL HERITAGE


Vintage Postcard 1981 Disney World Banjo Kings Main Street USA 1981 Postmark
$4.99
 Vintage Postcard 1981 Disney World Banjo Kings Main Street USA 1981 Postmark picture


Banjo Barometer With Thermometer Hygrometer 490mm
$84.76
Banjo Barometer With Thermometer Hygrometer 490mm picture


ANTIQUE JAPANESE NIPPON FIGURINE SET OF 3 WOMEN GEISHA PLAYING DRUM BANJO FAN
$24.0
ANTIQUE JAPANESE NIPPON FIGURINE SET OF 3 WOMEN GEISHA PLAYING DRUM BANJO FAN picture